Song name
# A B C D E F G H I J K L M N O P Q R S T U V W X Y Z

Hellyeah - Hellyeah tab

i felt i had to submit this cause the other two were so bad and this is a pretty cool 
so you might as well have a version that is in the proper tuning and has all the rhythms 
100% correct


HELL YEAH

INTRO
*Feedback, slides, etc. for first 20 seconds w/wah on and off, then drums


PRE-VERSE
|---------------------------------|---------------------------------|
|---------------------------------|---------------------------------|
|---------------------------------|---------------------------------|
|---------------------------------|---------------------------------|
|-0-0-3p0-5p0-0-3p0-5p0-0-0-0-3p0-|-0-0-3p0-5p0-0-3p0-5p0-0-0-0-3p0-|
|-0-0-3p0-5p0-0-3p0-5p0-0-0-0-3p0-|-0-0-3p0-5p0-0-3p0-5p0-0-0-0-3p0-|
|
|
|---------------------------------|---------------------------------|
|---------------------------------|---------------------------------|
|---------------------------------|---------------------------------|
|---------------------------------|---------------------------------|
|-0-------------------------------|-0-0-----------------------------|
|-0-------------------------------|-0-0-----------------------------|


|---------------------------------|-------------------------|
|---------------------------------|-------------------------|
|---------------------------------|-2-2-2-5-5-5-7-7-7-8-8-7-|
|---------------------------------|-0-0-0-0-0-0-0-0-0-0-0-0-|
|-0-0-3p0-5p0-0-3p0-5p0-0-0-0-3p0-|-------------------------|
|-0-0-3p0-5p0-0-3p0-5p0-0-0-0-3p0-|-------------------------|
|
|
|---------------------------------|-------------------------|
|---------------------------------|-------------------------|
|---------------------------------|-2-2-2-5-5-5-7-7-7-8-8-7-| (not sure)
|---------------------------------|-0-0-0-0-0-0-0-0-0-0-0-0-|
|-0-------------------------------|-------------------------|
|-0-------------------------------|-------------------------|
                                   Yeah!


VERSE 1
|---------------------------------|
|---------------------------------|
|---------------------------------| 3x
|---------------------------------|
|-0-0-3p0-5p0-0-3p0-5p0-0-0-0-3p0-|
|-0-0-3p0-5p0-0-3p0-5p0-0-0-0-3p0-|
Fuck the norm I cant understand
Live my life by the rules of no one
I am me that cant be wrong


|-----------------------------------|
|-----------------------------------|
|-----------------------------------|
|-----------------------------------|
|-0-0-3p0-5p0-0-3p0-5p0-0-0-0-------|
|-0-0-3p0-5p0-0-3p0-5p0-0-0-0-{3}~~-|
|
|
|---------------------------------|
|---------------------------------|
|---------------------------------|
|---------------------------------|
|-0-0-3p0-5p0-0-3p0-5p0-0-0-0-3p0-|
|-0-0-3p0-5p0-0-3p0-5p0-0-0-0-3p0-|
I do what I do when I do thats how I like it


|---------------------------------|
|---------------------------------|
|---------------------------------| 3x
|---------------------------------|
|-0-0-3p0-5p0-0-3p0-5p0-0-0-0-3p0-|
|-0-0-3p0-5p0-0-3p0-5p0-0-0-0-3p0-|
Conformity amputate my soul
Made of stone smashed the mold
Indifferent so fuck you all that


|-------------------------|
|-------------------------|
|-2-2-2-5-5-5-7-7-7-8-8-7-|
|-0-0-0-0-0-0-0-0-0-0-0-0-|
|-------------------------|
|-------------------------|
Whine bitch nag complain cry


CHORUS
|---------------------------|---------------------------|
|---------------------------|---------------------------|
|---------------------------|---------------------------|
|-0-5/6\5-0-8\7-0-5-0-5/6\5-|-0-5/6\5-0-8\7-0-5-0-5/6\3-|
|-0-5/6\5-0-8\7-0-5-0-5/6\5-|-0-5/6\5-0-8\7-0-5-0-5/6\3-|
|---------------------------|---------------------------|\
                                                          \ 2x
                                                          /
|---------------------------|------------------|         /
|---------------------------|------------------|
|---------------------------|------------------|
|-0-5/6\5-0-8\7-0-5-0-5/6\5-|------------------|
|-0-5/6\5-0-8\7-0-5-0-5/6\5-|-5-10-5-7-5-------|
|---------------------------|-5-10-5-7-5-{8}~~-|
If ya dont give a shit ya getcha hellyeah
Throwin fists in the pit ya getcha hellyeah
Think your fuckin with this well hell no
Balls volume strength getcha come on
Drinkin beer smokin weed ya getcha hellyeah
Got a bruised attitude ya getcha hellyeah
Think your fuckin with this well hell no
Balls volume strength getcha come on


PRE-VERSE
*Pick scrape or something with wah on and off


VERSE 2
Fuck you all that wont understand
Be a man no more and no less
I'm just me no matter what you say
I'am who I'am what I'am thats how I like it
Typical fucking lifeless clones
My attitude embrace my own
I dont care so just walk away and live
Your dull dead bland boring life


CHORUS
If ya dont give a shit ya getcha hellyeah
Throwin fists in the pit ya getcha hellyeah
Think your fuckin with this well hell no
Balls volume strength getcha come on
Drinkin beer smokin weed ya getcha hellyeah
Gotta bruised attitude ya getcha hellyeah
Think your fuckin with this well hell no
Balls volume strength getcha come on


BRIDGE (All harmonics from here to chorus are naturals)
GUITAR 1
|---------------------------|
|---------------------------|
|---------------------------|
|---------------------------|
|-6-5-4-0-5-4-3-0-----0-----|
|-6-5-4-0-5-4-3-0-{3}-0-{3}-|


BOTH GUITARS
|---------------------------|
|---------------------------|
|---------------------------| 3x
|---------------------------|
|-6-5-4-0-5-4-3-0-2/3-0-3/4-|
|-6-5-4-0-5-4-3-0-2/3-0-3/4-|


GUITAR 1
|---------------------------|
|---------------------------|
|---------------------------|
|---------------------------|
|-6-5-4-0-5-4-3-0-----0-----|
|-6-5-4-0-5-4-3-0-{3}-0-{3}-|


VERSE 3
BOTH GUITARS
|---------------------------|
|---------------------------|
|---------------------------| 3x
|---------------------------|
|-6-5-4-0-5-4-3-0-2/3-0-3/4-|
|-6-5-4-0-5-4-3-0-2/3-0-3/4-|\
                              \ 2x
                              /
|---------------------------|/
|---------------------------|
|---------------------------|
|---------------------------|
|-6-5-4-0-5-4-3-0-----0-----|
|-6-5-4-0-5-4-3-0-{3}-0-{3}-|
Dont give a fuck and dont think I ever will
For the prim and the propper its a shallow jagged pill
Dont really care if you like me
I just hold up my drink and get my hellyeah
So point your fingers and throw your stones
I'll be smokin and drinkin and breakin fuckin bones
To all you fuckin people thinkin your better than me
I hold up my middle finger and give my hellyeah


PRE-CHORUS
*Drum riff from intro


|------|
|------|
|------|
|------|
|------|
|-15\0-|


CHORUS
If ya dont give a shit ya getcha hellyeah
Throwin fists in the pit ya getcha hellyeah
Think your fuckin with this well hell no
Balls volume strength getcha come on
Drinkin beer smokin weed ya getcha hellyeah
Gotta bruised attitude ya getcha hellyeah
Think your fuckin with this well hell no
Balls volume strength getcha come on


OUTRO
|---------------------------|---------------------------|
|---------------------------|---------------------------|
|---------------------------|---------------------------|
|-0-5/6\5-0-8\7-0-5-0-5/6\5-|-0-5/6\5-0-8\7-0-5-0-5/6\3-|
|-0-5/6\5-0-8\7-0-5-0-5/6\5-|-0-5/6\5-0-8\7-0-5-0-5/6\3-|
|---------------------------|---------------------------|
                        Hellyeah!           get your whiskey and weed!


|---------------------------|------------------|
|---------------------------|------------------|
|---------------------------|------------------|
|-0-5/6\5-0-8\7-0-5-0-5/6\5-|------------------|
|-0-5/6\5-0-8\7-0-5-0-5/6\5-|-5-10-5-7-5-------|
|---------------------------|-5-10-5-7-5-{8}~~-|
                         Hellyeah!       come on


|---------------------------|---------------------------|
|---------------------------|---------------------------|
|---------------------------|---------------------------|
|-0-5/6\5-0-8\7-0-5-0-5/6\5-|-0-5/6\5-0-8\7-0-5-0-5/6\3-|
|-0-5/6\5-0-8\7-0-5-0-5/6\5-|-0-5/6\5-0-8\7-0-5-0-5/6\3-|
|---------------------------|---------------------------|
                       Hellyeah!            balls volume and


|---------------------------|------------------|
|---------------------------|------------------|
|---------------------------|------------------|
|-0-5/6\5-0-8\7-0-5-0-5/6\5-|------------------|
|-0-5/6\5-0-8\7-0-5-0-5/6\5-|-5-10-5-7-5-------|
|---------------------------|-5-10-5-7-5-{8}~~-|
Strength!              Hellyeah!


w/Drum riff from intro
Hellyeah, hellyeah, hellyeah

*NO MUSIC
Hellyeah
Tap to rate this tab
 
# A B C D E F G H I J K L M N O P Q R S T U V W X Y Z