Song name
# A B C D E F G H I J K L M N O P Q R S T U V W X Y Z

Heroes Del Silencio - 16 tab

introducción

            D                                     D
|-----3p2-------------------------------------------0-----------------------------5----------------|
|----------3--------------------------------------3---3-------------------------3-----3------------|
|-------------2-------2---------2---------2-----2-------2---------2---------2----------------2-----|
|-------------0--0--0-----0--0------0--0------0-------------0--0------0--0----------------0--------|
|--------------------------------------------------------------------------------------------------|
|--------------------------------------------------------------------------------------------------|

|------------5-----5--------------5-----5--------------5-----5-------------5-----5-----------------|
|---3--3-3-3----3--3-----3--3-3-3----3--3-----3--3-3-3----3--3----3--3-3-3----3--3-----------------|
|--------------------------------------------------------------------------------------------------|
|--------------------------------------------------------------------------------------------------|
|--------------------------------------------------------------------------------------------------|
|--------------------------------------------------------------------------------------------------|

|--------------------------------------------------------------------------------------------------|
|---7--7-7--8--8-8--10-----------7--7-7--8-------------------7----7--7-7--6--6-6-6-----------------|
|------------------------9--9-9---------------7--7-7--9--9-9------7--7-7--7--7-7-7-----------------|
|--------------------------------------------------------------------------------------------------|
|--------------------------------------------------------------------------------------------------|
|--------------------------------------------------------------------------------------------------|

                                   D                                 A               G
|----3p2--------------------3------0-----3p2----------------------0------0---0----3-------3p2------|
|---------3---------------3--3-----3----------3---------3--3--3p--2--------0---0----3---------3----|
|------------2--2-------2----------2-------------2--2---2--2--2p--2----------2--------0----------2-|
|------------0--0-----0------------0-------------0--0---0--0--0---2------------------------------0-|
|---------------0-----------------------------------0----------------------------------------------|
|--------------------------------------------------------------------------------------------------|


D                    A                                     G                  D 
Quebrados recuerdos de un ayer                             tu risa vulgar agobiandome 
|-----------------------------12------------------------10----10----10---------3---2--3--2--3--2---|
|---------------------------------10-----12-----10---8-----8-----8-----------3---3-----------------|
|-------------------------------------9------9-----------------------------------------------------|
|--------------------------------------------------------------------------------------------------|
|--------------------------------------------------------------------------------------------------|
|--------------------------------------------------------------------------------------------------|

D                       A               G                         D
los suenos de un grito de dios          los signos se hicieron para los dos

|-------------------------0------0---0----3--------------------------------------------------------|
|-------------------------2--------0---0----3------------------------------------------------------|
|-------------------------2----------2--------0----------------------------------------------------|
|-------------------------2------------------------------------------------------------------------|
|--------------------------------------------------------------------------------------------------|
|--------------------------------------------------------------------------------------------------|


Em         G   
Y no se como 
    D4           D     
podre cumplir el castigo
Em     G
no se como 
    D
podre cumplir el castigo...


D
Las ruinas de memphis
 A
y la inquietud  
G
no pudo entender  
       D
aquella actitud 
D
por no apretar el gatillo 
     A
y matar
G                D
quise evitar tanta tension
G
creí mas en la suerte 
        D
que en los juegos de azar
D
cualquier precaucion es poca
   A
para el amor.
G
entre las sabanas de seda 
D
tu y yo


Em         G 
Y no se como 
      D4          D   
podre cumplir el castigo
Em     G
no se como 
    D4                   D
podre cumplir el castigo...
Tap to rate this tab
# A B C D E F G H I J K L M N O P Q R S T U V W X Y Z