Song name
# A B C D E F G H I J K L M N O P Q R S T U V W X Y Z

Heroes Del Silencio - El Estanque tab

El Estanque (Version-Gira 2007)
Aqui les entrego la introduccion de 'El Estanque' nueva version de la gira. 

Efectos: Chorus, Reverb, Delay




|---------------------------------------|---------------|------------------|
|--------------------6--5~---5p6h5---5--|--/5-----------|------------------|
|--/7~---7--------7-----------------7---|------7--5-----|-----------5--/7--|
|-----------7-7-------------------------|------------5--|--5--5-7----------|
|---------------------------------------|---------------|------------------|
|---------------------------------------|---------------|------------------|



|------------|----------------------8------|------------------------|
|------------|--/6--5-------10-------10----|--/5--------------------|
|--7p5h7-----|---------7-/9------9------9--|--------7----5----/9----|
|------------|-----------------------------|------------------------|
|------------|-----------------------------|------------------------|
|------------|-----------------------------|------------------------|


|------------------------|------------------------|
|--8---------10-------8--|--/5--------------/6----|
|-------9----------9-----|--------7----5----------|
|------------------------|------------------------|
|------------------------|------------------------|
|------------------------|------------------------|


|-----------------------|-----------------7--------|
|--6----5---------------|--6---------8-------8-----|
|------------7----/7----|-------7--------------7---|
|-----------------------|--------------------------|
|-----------------------|--------------------------|
|-----------------------|--------------------------|


|-/8----7--------------|----------------------|----------------------|
|------------8---------|-/8----7--------------|--5----6----8----6----|
|-----------------9~---|------------9---------|--5-------------------|
|----------------------|-----------------9~---|--5-------------------|
|----------------------|----------------------|----------------------|
|----------------------|----------------------|----------------------|


|-----------------|----------------|------------------------|
|--5h6p5----------|--5----6--5-----|------------8----5h6p5--|
|---------5-------|--5----------5--|-------5----------------|
|------------7----|--7-------------|--7---------------------|
|-----------------|----------------|------------------------|
|-----------------|----------------|------------------------|


|----------------------|-------------------------|--------------------------
|--5----6----5----5----|--/8----7----------------|--/7-------------------10-
|--5-------------------|-------------9----/11~---|--------9----7----/11-----
|--5-------------------|-------------------------|--------------------------
|-----------------7----|-------------------------|--------------------------
|----------------------|-------------------------|--------------------------


|--------------------------|------------------------|-----------------------
|--------12----------10----|--/7--------------/8----|--8----7---------------
|--11----------11----------|--------9----7----------|------------9----/9----
|--------------------------|------------------------|-----------------------
|--------------------------|------------------------|-----------------------
|--------------------------|------------------------|-----------------------


|-------------12---------|--/12----10----------/12----|--------------------|
|-------12---------------|---------------12-----------|------------8----7--|
|--9---------------------|----------------------------|-------9------------|
|------------------------|----------------------------|--9-----------------|
|------------------------|----------------------------|--------------------|
|------------------------|----------------------------|--------------------|


|--10---------9--------7--|-----------------------|
|--------7---------7------|--7--------------10----|
|-------------------------|-------9----7----------|
|-------------------------|-----------------------|
|-------------------------|-----------------------|
|-------------------------|-----------------------|


                                                     ~     ~     ~     
|------------------------0---------------0-------|--3----------------|
|----0-1-0-----------0-------0-------0-------0---|--3----------------|
|--2-------2-0-----------------------------------|--4----------------|
|--------------4-2-2---2---2---2-2-2---2---2---2-|--5----------------|
|------------------------------------------------|--5----------------|
|------------------------------------------------|--3----------------|


|--8----7--------------|----------------------|-----------------------|
|------------8---------|--8----7--------------|--5----6----8----10----|
|-----------------9----|------------9---------|--5--------------------|
|----------------------|-----------------9----|--5--------------------|
|----------------------|----------------------|-----------------------|
|----------------------|----------------------|-----------------------|


|--8----------10----|--------8----|----------------|-----------------------|
|-------10----------|--10---------|--5----6--5-----|------------8----5h6p5-|
|-------------------|-------------|--5----------5--|-------5---------------|
|-------------------|-------------|--7-------------|--7--------------------|
|-------------------|-------------|----------------|-----------------------|
|-------------------|-------------|----------------|-----------------------|


    
|----------------------||
|--5----6----5----5----||
|--5-------------------||
|--5-------------------||
|-----------------7----||
|----------------------||
Tap to rate this tab
# A B C D E F G H I J K L M N O P Q R S T U V W X Y Z