Song name
# A B C D E F G H I J K L M N O P Q R S T U V W X Y Z

Heroes Del Silencio - La Carta tab

                          La Carta
by:BENDERSstrings

during intro:Am,F5,C,E


on the 5's strum a bit fast...
e:-------------------12----|---12---13-12|
B:---------------------10--|-----10------|
G:-------------------------|-------------|
D:-------------------------|-------------|
A:-------------------------|-------------|
E:----5---5-5-5-5-5--------|-------------|

e:------------|-------------|--------------|--------------|
B:------------|-------------|--------------|--------------|
G:--------9--9|------10--9--|-------9------|---------16-12|
D:------10-10-|-----10-10---|-----10--10---|------14------|x2
A:---12-------|---8---------|------------12|-----14-------|
E:------------|-------------|---8----------|---12---------|

on last part do this...

|----------------|
|----------------|
|--------12-11---|
|-----14---------|
|----14----------|
|---12-----------|

THATS PRETTY MUCH HOW THE INTRO SHOULD BE. IF YOU LISTEN TO THE SONG THATS HOW HIGH THEY PLAY.ENJOY!
Tap to rate this tab
# A B C D E F G H I J K L M N O P Q R S T U V W X Y Z