Song name
# A B C D E F G H I J K L M N O P Q R S T U V W X Y Z

Heroes Del Silencio - Entre Dos Tierras tab

                                Entre Dos Tierras                                 
                               Heroes del Silencio

Lead Guitar w/ Spanish Chords



     Sim                 Sim                 Sim      Sim         
     W                   W                   Q    E.  H        S  
E||--2----------------|--2----------------|--2--------2--------L-|
B||--3----------------|--3----------------|--3--------3--------L-|
G||--4----------------|--4----------------|--4--------4--------L-|
D||--4----------------|--4----------------|--4--------4--------L-|
A||--2----------------|--2----------------|--2--------2--------L-|
E||--2----------------|--2----------------|--2--------2--------L-|


  Sim      Sol           Sim      Sim           Sim      Mi5         
  Q    E.  H        S    Q    E.  H        S    Q    E.  H        S  
--2--------3----------|--2--------2--------L-|--2--------0--------L-|
--3--------3--------L-|--3--------3--------L-|--3--------0--------L-|
--4--------0--------L-|--4--------4--------L-|--4--------x----------|
--4--------0--------L-|--4--------4--------L-|--4--------2--------L-|
--2-------------------|--2--------2--------L-|--2-------------------|
--2-------------------|--2--------2--------L-|--2-------------------|


  Sim                                     Re4             
  E   E  E  S E  E  S E  E     E  E  E  S E   E  S E  E   
--2---2--2----2--2--2-2--2--|--2--2--2----5---5--5-5--5--|
--3---3--3----3--3--3-3--3--|--3--3--3----3---3--3-3--3--|
--4---4--4----4--4--4-4--4--|--4--4--4----0---0--0-0--0--|
--4---4--4----4--4--4-4--4--|--4--4--4----0---0--0-0--0--|
--2---2--2----2--2--2-2--2--|--2--2--2-------------------|
--2---2--2----2--2--2-2--2--|--2--2--2-------------------|


  Sim                                     Mi5             
  E   E  E  S E  E  S E  E     E  E  E  S E   E  S S E.   
--2---2--2----2--2--2-2--2--|--2--2--2----0---0--0-0-0---|
--3---3--3----3--3--3-3--3--|--3--3--3----0---0--0-0-0---|
--4---4--4----4--4--4-4--4--|--4--4--4----x---x--x-x-x---|
--4---4--4----4--4--4-4--4--|--4--4--4----2---2--2-2-2---|
--2---2--2----2--2--2-2--2--|--2--2--2-------------------|
--2---2--2----2--2--2-2--2--|--2--2--2-------------------|


  Sim                                     Re4             
  E   E  E  S E  E  S E  E     E  E  E  S E   E  S E  E   
--2---2--2----2--2--2-2--2--|--2--2--2----5---5--5-5--5--|
--3---3--3----3--3--3-3--3--|--3--3--3----3---3--3-3--3--|
--4---4--4----4--4--4-4--4--|--4--4--4----0---0--0-0--0--|
--4---4--4----4--4--4-4--4--|--4--4--4----0---0--0-0--0--|
--2---2--2----2--2--2-2--2--|--2--2--2-------------------|
--2---2--2----2--2--2-2--2--|--2--2--2-------------------|


  Sim                                      La                   
  E   E  E  S E  E  S E  E     E  E  E  E  E  E  S T T T T T T  
--2---2--2----2--2--2-2--2--|--2--2--2--2--0--0--0-0-0-0-0-0-0-|
--3---3--3----3--3--3-3--3--|--3--3--3--3--2--2--2-2-2-2-2-2-2-|
--4---4--4----4--4--4-4--4--|--4--4--4--4--2--2--2-2-2-2-2-2-2-|
--4---4--4----4--4--4-4--4--|--4--4--4--4--x--x--x-x-x-x-x-x-x-|
--2---2--2----2--2--2-2--2--|--2--2--2--2--4--4--4-4-4-4-4-4-4-|
--2---2--2----2--2--2-2--2--|--2--2--2--2----------------------|


  S S S S E  S E  S S S E  S S    S S S S E  S E  S S S E  S S  
------------------------0------|----------0--------------------|
----------3--------------------|------------------------3------|
------4------4------2------2---|------4------4------2------2---|
----4---4------4--4---4------4-|----2---2------2--2---2------2-|
-------------------------------|-------------------------------|
-------------------------------|-------------------------------|


                                                    ^  ^      
  S S S S E  S E  S S S E  S S    S S S S E  S E  S E  E  E   
------------------------0------|----------0---------2--2--L--|
----------3--------------------|--------------------3--3--L--|
------4------4------2------2---|------4------4---------------|
----4---4------4--4---4------4-|----2---2------2--2----------|
-------------------------------|-----------------------------|
-------------------------------|-----------------------------|


  S S E  S S S S S S E  S E  S    S S E  S S E  S S E  S S E   
---------------------2---------|------0----0--------2----2----|
------3----3---3---2------2--2-|--------------------3--3---3--|
----4----4---4---2------2------|----2--------2----0-----------|
--4----------------------------|--2------2------0-------------|
-------------------------------|------------------------------|
-------------------------------|------------------------------|


  S S E  S E  S S S E  S E  S    S S E  S E  S S E  S S S E   
--------------------2--L------|------0----0--0---2--2-3-2----|
------3----3--0---2------2----|------------------3--------3--|
----4----4------2-----------2-|----2-------------------------|
--4---------------------------|--2------2------0-------------|
------------------------------|------------------------------|
------------------------------|------------------------------|


  S S E  S E  S S S E  S E  S    S S E  S S E  S S S E  S E   
--------------------0--2-0--0-|------0----0------2---2--2-2--|
------3----3------------------|------------------3------3----|
----4----4----4---2-----------|----2-----------0---0---------|
--4-------------4-------------|--2------2---2----------------|
------------------------------|------------------------------|
------------------------------|------------------------------|


  S S E  S E  S S S E  S E  S    S S E  S E  S S S S S S S S S  
--------------------2--5-2--L-|------0----0--0-----------------|
------3----3------2-----------|------------------3-3-3-3-3-3-3-|
----4----4----4-2-------------|----2----2----------------------|
--4---------------------------|--2-------------0---------------|
------------------------------|--------------------------------|
------------------------------|--------------------------------|


  S S S S S S S S S S S S S S S S    S S S S S S S S S S S S S S S S  
----------------------------------|----0---0---0---0---2---2---2---2-|
----3---3---3---3---5---5---5---5-|----------------------------------|
--4---4---4---4-------------------|------------------0---0---0---0---|
------------------4---4---4---4---|--2---2---2---2-------------------|
----------------------------------|----------------------------------|
----------------------------------|----------------------------------|


  S S S S S S S S S S E  S E  S    S S S S S S S S S S S S S S S S  
----------------------0--2-0----|----0-0-0---0-0-0---3---3---3---3-|
----3-3-3---3-3-----------------|----------------------------------|
----------------4---2---------2-|------------------0---0---0---0---|
--4-------4-------4-------------|--2-------2-----------------------|
--------------------------------|----------------------------------|
--------------------------------|----------------------------------|


  Sim                           Re       Sol              Sim                  
  E   E  S S S S E  E  S E.     Q    E.  Q    S S S E     Q    E.  H        S  
--2---2--2-2-2-2-L--2--2-2---|--2----L---3----3-2------|--2----L---2--------L-|
--3---3--3-3-3-3-L--3--3-3---|--3----L---3--------3-0--|--3----L---3--------L-|
--4---4--4-4-4-4-L--4--4-4---|--2----L---0-------------|--4----L---4--------L-|
--4---4--4-4-4-4-L--4--4-4---|--0----L---0-------------|--4----L---4--------L-|
-----------------------------|-------------------------|----------------------|
-----------------------------|-------------------------|----------------------|


  Re       Sol           Sim                        
  Q    E.  H        S    E   E  E  S E  E  S E  E   
--2----L---3--------L-|--2---2--2----2--2--2-2--2--|
--3----L---3--------L-|--3---3--3----3--3--3-3--3--|
--2----L---0--------L-|--4---4--4----4--4--4-4--4--|
--0----L---0--------L-|--4---4--4----4--4--4-4--4--|
----------------------|--2---2--2----2--2--2-2--2--|
----------------------|--2---2--2----2--2--2-2--2--|


             La5               Sim                        
  E  E  E  S E   E  E  E  S    E   E  E  S E  E  S E  E   
--2--2--2----5---5--5--5--L-|--2---2--2----2--2--2-2--2--|
--3--3--3----5---5--5--5--L-|--3---3--3----3--3--3-3--3--|
--4--4--4----2---2--2--2--L-|--4---4--4----4--4--4-4--4--|
--4--4--4-------------------|--4---4--4----4--4--4-4--4--|
--2--2--2-------------------|--2---2--2----2--2--2-2--2--|
--2--2--2-------------------|--2---2--2----2--2--2-2--2--|


             Mi5                                              
  E  E  E  S E   S S E  E.     S S S S E  S S S S S S E  S S  
--2--2--2----0---0-0-0--0---|-------------------------0------|
--3--3--3----0---0-0-0--0---|------0---3--0------------------|
--4--4--4----x---x-x-x--x---|---------------------2------2---|
--4--4--4----2---2-2-2--2---|----4---4------4---4---4------4-|
--2--2--2-------------------|--------------------------------|
--2--2--2-------------------|--------------------------------|


  S S S S E  S S S S S S E  S S    S S E  S S S S S S S S S E.   
----------0---------------------|---------------------0---2-0---|
-------------------------3------|------3----3-------------------|
------2------2-------0------0---|----4----4---4-4---2---2-------|
----2---2------2---0---0------0-|--4--------------4-------------|
--------------------------------|-------------------------------|
--------------------------------|-------------------------------|


  S S S S S E.  S S E  S S E     S S S S S E  S S S S S S E  S  
------0---5-0-------2----2----|-------------------0-2-0---0--0-|
------------------3-3--3---3--|----3---3---3-------------------|
----2---2-------0-------------|------4---4----4-2-------2------|
--2---------------------------|--4-----------------------------|
------------------------------|--------------------------------|
------------------------------|--------------------------------|


  S S S E  E  S S E  S S S E     S S E  S E  S S S E  S E.   
------0-0--0--0---2----2-2----|--------------------2--5-2---|
------------------3--3---3-3--|------3----3------2----------|
----2-----------0-------------|----4----4----4-2------------|
--2---------------------------|--4--------------------------|
------------------------------|-----------------------------|
------------------------------|-----------------------------|


  S S E  S E  S S S S S S S S S    E  E  S S S S E  E  S E.   
------0----0--0-----------------|--2--2--2-2-2-2-L--2--2-2---|
------------------3---3---3---2-|--3--3--3-3-3-3-L--3--3-3---|
----2-----------0---0---0---0---|--4--4--4-4-4-4-L--4--4-4---|
--2------2----------------------|--4--4--4-4-4-4-L--4--4-4---|
--------------------------------|----------------------------|
--------------------------------|----------------------------|


  Q    E.  Q    S S S E     Q    E.  H        S    Q    E.  H        S  
--2----L---3----3-2------|--2----L---2--------L-|--2----L---3--------L-|
--3----L---3--------3-0--|--3----L---3--------L-|--3----L---3--------L-|
--2----L---0-------------|--4----L---4--------L-|--2----L---0--------L-|
--0----L---0-------------|--4----L---4--------L-|--0----L---0--------L-|
-------------------------|----------------------|----------------------|
-------------------------|----------------------|----------------------|


  S S S S S S S S S S S S S S E     S S E  S S S S S S S S S S S S  
--3------------------------------|---------6---6-----------6---6---|
----6-6---6---6-3-4-4-4---4---4--|---------------------------------|
--------5---5-----------5---5----|--0-7------7---7-0-7---0---7---7-|
---------------------------------|------8--------------8-----------|
---------------------------------|---------------------------------|
---------------------------------|---------------------------------|


  S S S S S S S S S S S S S S S S    S S S S S S S S S S S S S S E   
----------3---------------3-------|--3-------3---------------3------|
----4-------4-------4-------4-----|----3-------3-------3-------3----|
------5-------5-------5-------5---|------3-------3-------3-------3--|
--------5-------5-L-----5-------5-|--------5-------5-L-----5--------|
----------------------------------|---------------------------------|
----------------------------------|---------------------------------|


  S S S S S S E  S S S S S S E     S S S S S S S S S S S S S S S S  
--3--------------------------6--|----------6---6-----------6---6---|
----6-6---6---6----4-----4------|----------------------------------|
--------5---5--------5-0---5----|--0-7---0---7---7-0-7---0---7---7-|
--------------------------------|------8---------------8-----------|
--------------------------------|----------------------------------|
--------------------------------|----------------------------------|


  S S S E  S S S S S S S S S E     S S S S S E  S S S S S S S E   
-------------------------3------|--3---3---3----3---3---3---3----|
----4------4-------4-------4----|--3---3---3----3---3---3---3----|
------5------5-------5-------5--|--0---0---0----0---0---0---0----|
--5-----5------5-5-----5--------|--------------------------------|
--------------------------------|--------------------------------|
--------------------------------|--------------------------------|


  S S S S S E  S S S S S S S E     S S S S S E  S S S S S S S E   
--3---3---3----3---3---3---3----|--3---3---3----3---3---3---3----|
--3---3---3----3---3---3---3----|--3---3---3----3---3---3---3----|
--0---0---0----0---0---0---0----|--0---0---0----0---0---0---0----|
--------------------------------|--------------------------------|
--------------------------------|--------------------------------|
--------------------------------|--------------------------------|


  S S E  S S S S S S E  S E  S    S S E  S S E  S S E  S S E   
---------------------2---------|------0----0--------2----2----|
------3----3---3---2------2--2-|--------------------3--3---3--|
----4----4---4---2------2------|----2--------2----0-----------|
--4----------------------------|--2------2------0-------------|
-------------------------------|------------------------------|
-------------------------------|------------------------------|


  S S E  S E  S S S E  S E  S    S S E  S E  S S E  S S S E   
--------------------2--L------|------0----0--0---2--2-3-2----|
------3----3------2------2----|------------------3--------3--|
----4----4----4-2-----------2-|----2-------------------------|
--4---------------------------|--2------2------0-------------|
------------------------------|------------------------------|
------------------------------|------------------------------|


  S S E  S E  S S S E  S E  S    S S E  S S E  S S S E  S E   
--------------------0--2-0--0-|------0----0------2---2--2-2--|
------3----3------------------|------------------3------3----|
----4----4----4---2-----------|----2-----------0---0---------|
--4-------------4-------------|--2------2---2----------------|
------------------------------|------------------------------|
------------------------------|------------------------------|


  S S E  S E  S S S E  S E  S    S S S S S S S S S S S S S S S S  
--------------------2--5-2--L-|----0-0-0---0-0-0---3---3---3---3-|
------3----3------2-----------|----------------------------------|
----4----4----4-2-------------|------------------0---0---0---0---|
--4---------------------------|--2-------2-----------------------|
------------------------------|----------------------------------|
------------------------------|----------------------------------|


  E  E  S S S S E  E  S E.     Q    E.  Q    S S S E     Q    E.  H        S  
--2--2--2-2-2-2-L--2--2-2---|--2----L---3----3-2------|--2----L---2--------L-|
--3--3--3-3-3-3-L--3--3-3---|--3----L---3--------3-0--|--3----L---3--------L-|
--4--4--4-4-4-4-L--4--4-4---|--2----L---0-------------|--4----L---4--------L-|
--4--4--4-4-4-4-L--4--4-4---|--0----L---0-------------|--4----L---4--------L-|
----------------------------|-------------------------|----------------------|
----------------------------|-------------------------|----------------------|


  Q    E.  H        S    S S S S S S S S S S S S S S E   
--2----L---3--------L-|--3------------------------------|
--3----L---3--------L-|----6-6---6---6-3-4-4-4---4---4--|
--2----L---0--------L-|--------5---5-----------5---5----|
--0----L---0--------L-|---------------------------------|
----------------------|---------------------------------|
----------------------|---------------------------------|


  S S E  S S S S S S S S S S S S    S S S S S S S S S S S S S S S S  
---------6---6-----------6---6---|----------3---------------3-------|
---------------------------------|----4-------4-------4-------4-----|
--0-7------7---7-0-7---0---7---7-|------5-------5-------5-------5---|
------8--------------8-----------|--------5-------5-L-----5-------5-|
---------------------------------|----------------------------------|
---------------------------------|----------------------------------|


  S S S S S S S S S S S S S S E     S S S S S S E  S S S S S S E   
--3-------3---------------3------|--3--------------------------6--|
----3-------3-------3-------3----|----6-6---6---6----4-----4------|
------3-------3-------3-------3--|--------5---5--------5-0---5----|
--------5-------5-L-----5--------|--------------------------------|
---------------------------------|--------------------------------|
---------------------------------|--------------------------------|


  S S S S S S S S S S S S S S S S    S S S E  S S S S S S S S S E   
----------6---6-----------6---6---|-------------------------3------|
----------------------------------|----4------4-------4-------4----|
--0-7---0---7---7-0-7---0---7---7-|------5------5-------5-------5--|
------8---------------8-----------|--5-----5------5-5-----5--------|
----------------------------------|--------------------------------|
----------------------------------|--------------------------------|


  S S S S S E  S S S S S S S E     S S S S S E  S S S S S S S E   
--3---3---3----3---3---3---3----|--3---3---3----3---3---3---3----|
--3---3---3----3---3---3---3----|--3---3---3----3---3---3---3----|
--0---0---0----0---0---0---0----|--0---0---0----0---0---0---0----|
--------------------------------|--------------------------------|
--------------------------------|--------------------------------|
--------------------------------|--------------------------------|


  S S S S S E  S S S S S S S E     S S S S E  S S S S S S E  S S  
--3---3---3----3---3---3---3----|-------------------------0------|
--3---3---3----3---3---3---3----|------0---3--0------------------|
--0---0---0----0---0---0---0----|---------------------2------2---|
--------------------------------|----4---4------4---4---4------4-|
--------------------------------|--------------------------------|
--------------------------------|--------------------------------|


  S S S S E  S T  T T  T S S S E   S S    S S S S E  S S S S  T T Q    S  
----------0--3-2h-3-2p-0---------------|---------------------------------|
-------------------------0---3---------|----------3----3-5-5b-5-3-5----L-|
------2--------------------2---4p--2-4-|------4------4-------------------|
----2---2------------------------------|----4---4------------------------|
---------------------------------------|---------------------------------|
---------------------------------------|---------------------------------|


  S S S S E  S  S S T  T S Q    S    S S S S S S S S S S S S S S S S  
----------0-----------------------|----------------------------------|
--L----------3p-2-3-3p-2----------|----------------------------------|
------2------------------4--------|----------------------------------|
----2---2------------------4----L-|----------------------------------|
----------------------------------|--2-2-2-2-2-2-2-2-0-0-0-0-0-0-0-0-|
----------------------------------|----------------------------------|


  S S S S S S S S S S S S S S S S    S S S S S S S S S S S S S S S S  
----------------------------------|----------------------------------|
----------------------------------|----------------------------------|
----------------------------------|----------------------------------|
----------------------------------|--4-4-4-4-4-4-4-4-0-0-0-0-0-0-0-0-|
------------------2-2-2-2-2-2-2-2-|----------------------------------|
--3-3-3-3-2-2-2-2-----------------|----------------------------------|


  S S S S S S S S S S S S E  S S    E  S S S S S S E  S S S S S S  
---------------------------------|--------------------------------|
---------------------------------|--------------------------------|
--0-0-0-0-0-0-7-0-6-0-4-0-2--4-4-|--L--4-4-2-4---4-L--4-4-2-4---4-|
-------------------------------4-|--L--4-4-2-4---4-L--4-4-2-4---4-|
-------------------------------2-|--L--2-2-0-2---2-L--2-2-0-2---2-|
---------------------------------|--------------------------------|


  E  S S S S S S E  S S S S S S    S S S S  E  S S S  S S  S  E  S  S  
--------------------------------|------7---10--7--------9----10--9----|
--------------------------------|----7---7-------7---10---10-------10-|
--L--4-4-2-4---4-L--4-4-2-4---4-|--L----------------------------------|
--L--4-4-2-4---4-L--4-4-2-4---4-|--L----------------------------------|
--L--2-2-0-2---2-L--2-2-0-2---2-|--L----------------------------------|
--------------------------------|-------------------------------------|


                     |-3-| |-3-| |-3-| |-3-|                                    
  S S S S  E  E      S S S S S S S S S S S S    S S S S E  S S S S  T T Q    S  
------7---10--7S--|--------------------------|---------------------------------|
----7---7---------|--9-8-7-------------------|----------3----3-5-5b-5-3-5----L-|
------------------|--------9-8-7-------------|------4------4-------------------|
------------------|--------------9-7---------|----4---4------------------------|
------------------|------------------9-8-7-5-|--2------------------------------|
------------------|--------------------------|---------------------------------|


  S S S S E  S  S S T  T S Q    S    S S S S E  S S S S  T T Q    S  
----------0-----------------------|--------------------------0------|
--L----------3p-2-3-3p-2----------|----------3----3-5-5b-5-3-5----L-|
------2------------------4--------|------4------4-------------------|
----2---2------------------4----L-|----4---4------------------------|
----------------------------------|---------------------------------|
----------------------------------|---------------------------------|


  S S S S E  S  S S T  T S Q    S    E  S S S S S S E  S S S S S S  
----------------------------------|--------------------------------|
--L-------5--3p-2-3-3p-2----------|--------------------------------|
------2------------------4-4----4-|--L--4-4-2-4---4-L--4-4-2-4---4-|
----2---2------------------4----4-|--L--4-4-2-4---4-L--4-4-2-4---4-|
--------------------------------2-|--L--2-2-0-2---2-L--2-2-0-2---2-|
----------------------------------|--------------------------------|


  E  S S S S S S E  S S S S S S  
--------------------------------|
--------------------------------|
--L--4-4-2-4---4-L--4-4-2-4---4-|
--L--4-4-2-4---4-L--4-4-2-4---4-|
--L--2-2-0-2---2-L--2-2-0-2---2-|
--------------------------------|


              |--3--|                              
  S  S  S  S  S  S  S  S   S S  S S  S  S S  S  S  
-------------14----------------15------15------14-|
-------15-17----17-15-----------x-------x-------x-|
--L-16----------------16p-15-L-15-L-15-15-L-15-15-|
--L-----------------------------------------------|
--L-----------------------------------------------|
--------------------------------------------------|


              |--3--|                              
  S  S  S  S  S  S  S  S   S S  S S  S  S S  S  S  
-------------14----------------15------15------14-|
-------15-17----17-15-----------x-------x-------x-|
--L-16----------------16p-15-L-15-L-15-15-L-15-15-|
--------------------------------------------------|
--------------------------------------------------|
--------------------------------------------------|


  S S S S S   S S  S S S S S S S S S    S S S S S   S S  S S S S S S S S S  
-------------------------------------|-----------------------------------2-|
-------------------------------------|-------------------------------2---2-|
------7-9-9br-7----------------------|------7-9-9br-7----------------3---3-|
----9-----------9p-8-L-L-----------9-|--L-9-----------9p-8-L-L-------4---4-|
-------------------------9-L-L-L-L-9-|--L----------------------9-L-L-L-L-4-|
-----------------------------------7-|--L--------------------------------2-|


  E  S S S S S S H           E  E  S S S S E  E  S E.   
-----------2---2-L--------|--2--2--2-2-2-2-L--2--2-2---|
--L--------2---2-L--------|--3--3--3-3-3-3-L--3--3-3---|
--L--3-3-3-3---3-L--------|--4--4--4-4-4-4-L--4--4-4---|
--L--4-4-4-4---4-L--------|--4--4--4-4-4-4-L--4--4-4---|
--L--4-4-4----------------|----------------------------|
-----2-2-2----------------|----------------------------|


  Q    E.  Q    S S S E     Q    E.  H        S    Q    E.  H        S  
--2----L---3----3-2------|--2----L---2--------L-|--2----L---3--------L-|
--3----L---3--------3-0--|--3----L---3--------L-|--3----L---3--------L-|
--2----L---0-------------|--4----L---4--------L-|--2----L---0--------L-|
--0----L---0-------------|--4----L---4--------L-|--0----L---0--------L-|
-------------------------|----------------------|----------------------|
-------------------------|----------------------|----------------------|


  S S S S S S E  S S S S S S E     S S S S S S S S S S S S S S S S  
--L-3-----3--------3-----3------|----3-----3---------3-----6---3---|
--L---6-----6--------4-----4----|------3-----3---------3-----3---3-|
--L-----5-----5--------5-----5--|--------3-----3---------3---------|
--L-----------------------------|----------------5-L---------------|
--------------------------------|----------------------------------|
--------------------------------|----------------------------------|


  S S S S S S S S S S S S S S S S    S S S S S S S S S S S S S S E   
----------3---------------3-------|--3-------6---------------6------|
----3-------4-------4-------4-----|----3-------3-------3-------3----|
------5-------5-------5-------5---|------3-------3-------3-------3--|
--------5-------5-L-----5-------5-|--------5-------5-L-----5--------|
----------------------------------|---------------------------------|
----------------------------------|---------------------------------|


  S S S S S S E  S S S S S S E     S S S S S S S S S S S S S S E   
--3-------3---------------------|----------6-----6-----6---6---6--|
----6-6-------6----4-4---4---4--|---------------------------------|
--------5---5----------5---5----|----7---0---7-----7--------------|
--------------------------------|------8-------8-----8---8---8----|
--------------------------------|---------------------------------|
--------------------------------|---------------------------------|


  S S S S S S S S S S S S S S E     S S S S S E  S S S S S S S E   
---------------------------------|--3---3---3----3---3---3---3----|
----4-----4-----4-L-4-----4------|--3---3---3----3---3---3---3----|
------5-----5---------5-----5----|--0---0---0----0---0---0---0----|
--------5-----5---------5-----5--|--------------------------------|
---------------------------------|--------------------------------|
---------------------------------|--------------------------------|


  S S S S S E  S S S S S S S E     S S S S S E  S S S S S S S E   
--3---3---3----3---3---3---3----|--3---3---3----3---3---3---3----|
--3---3---3----3---3---3---3----|--3---3---3----3---3---3---3----|
--0---0---0----0---0---0---0----|--0---0---0----0---0---0---0----|
--------------------------------|--------------------------------|
--------------------------------|--------------------------------|
--------------------------------|--------------------------------|


  W                   W                   W                   W                 
-------------------|-------------------|-------------------|-------------------|
--3----------------|--L----------------|--L----------------|--L----------------|
--4----------------|--L----------------|--L----------------|--L----------------|
--4----------------|--L----------------|--L----------------|--L----------------|
--2----------------|--L----------------|--L----------------|--L----------------|
-------------------|-------------------|-------------------|-------------------|


-------------------||
-------------------||
-------------------||
-------------------||
-------------------||
-------------------||




Duration Legend
---------------
W - whole
H - half
Q - quarter
E - 8th
S - 16th
T - 32nd
X - 64th
. - note dotted
|-n-|  - n-tuplets


Tablature Legend
----------------
L - tied note
x - dead note
g - grace note
(n) - ghost note
> - accentuded note
NH - natural harmonic
AH - artificial harmonic
TH - tapped harmonic
SH - semi harmonic
PH - pitch harmonic
h - hammer on
p - pull off
b - bend
br - bendRelease
pb - preBend
pbr - preBendRelease
brb - bendReleaseBend
\n/ - tremolo bar dip
\n - tremolo bar dive
-/n - tremolo bar Release up
/n\ - tremolo bar inverted dip
/n - tremolo bar return
-\n - tremolo bar Release down
S - shift slide
s - legato slide
/ -  slide into from below or out of upwards
\ -  slide into from above or out of downwards
~ - vibrato
W - wide vibrato
tr - trill
TP - tremolo picking
T - tapping
S - slap
P - pop
< - fade in
^ - brush up
v - brush down
Tap to rate this tab
 
# A B C D E F G H I J K L M N O P Q R S T U V W X Y Z