Guitaretab - guitar tabs
Song name
# A B C D E F G H I J K L M N O P Q R S T U V W X Y Z

High On Fire - Fury Whip tab

These are just random riffs from the song, mostly intro, that I figured out. If someone 
to take these (if these are accurate) and figure out the arpeggio section in the intro, 
well as solo and i think there is a bridge riff I forgot, that'd be great.
-------------------------------------------------------------------------------
			     Fury Whip - High on Fire
-------------------------------------------------------------------------------
Tabbed by: Mike
Email: xmudvaynex_ld50@[nospam]hotmail.com

Tuning:C-F-Bb-Eb-G-C (low to high)
|------------------------------------------|
|------------------------------------------|
|-9-----9-----------9----------------------|
|-x-----x-----9-----x----------------------|x3, then
|-7-----6-----x-----7-----9-----8----------|
|-0-0-0---0-0-6-0-0---0-0-7-0-0-6-0-0------|

|--------------------------------------------------|
|--------------------------------------------------|
|-9-----12----11-----9-----15----11----------------|x2
|-x------x-----x-----x------x-----x----------------|
|-7-----10-----9-----7-----13-----9----------------|
|-0-0-0----0-0---0-0-0-0-0----0-0---0-0------------|

|--------------------------------------------------------------------------|
|--------------------------------------------------------------------------|
|-9-----12----11-----9-----15-----18-----15-----15----11-----15------------|
|-x------x-----x-----x------x------x------x------x-----x------x------------|
|-7-----10-----9-----7-----13-----16-----13-----13-----9-----13------------|
|-0-0-0----0-0---0-0-0-0-0----0-0----0-0--0-0-0----0-0---0-0--0-0-0--------|

|-------------------------------------------------|
|-------------------------------------------------|
|-----15-----18-----15-----15-----11--------------|
|------x------x------x------x------x--------------|
|-----13-----16-----13-----13------9--------------|
|-0-0----0-0----0-0--0-0-0----0-0----0-0----------|

ARPEGGIO GOES HERE [someone else do it plz!]

Bridge To Verse Riff
[ Tab from: http://www.guitaretab.com/h/high-on-fire/101070.html ]
|-----------------------------------------------------------------|
|-----------------------------------------------------------------|
|-----------------------------------------------------------------|x2
|-2-----5-----------2-----8---------------------------------------|
|-2-----5-----5-----2-----8-----5---------------------------------|
|-0-0-0-3-0-0-2-0-0-0-0-0-6-0-0-2-0-0-----------------------------|

VERSE [This is probably not very accurate]
|-----------------------------------------------------------------------------|
|-----------------------------------------------------------------------------|
|-----------------------------------------------------------------------------|
|-------------------------------------------------------12/14-12/14-----------|
|-14-14-14-14-14-14---12/14-12/14---14-14-14-14-14-14----x--x--x--x-----------|
|-12-12-12-12-12-12-0-10/12-10/12-0-12-12-12-12-12-12-0-10/12-10/12-----------|

|---------------------------------------------------------------------------|
|---------------------------------------------------------------------------|
|---------------------------------------------------------------------------|
|---------------------------------------------------------------------------|
|---14-14-14-14-14-14---14/17/20---14-14-14-14-14-14-14-14-14---------------|
|-0-12-12-12-12-12-12-0-12/15/18-0-12-12-12-12-12-12-12-12-12\0[pickscrape]-|
[They repeat somewhere just listen to it and figure out the order]

|----------------------------------------------------------------------------|
|----------------------------------------------------------------------------|
|-----------------------------------------------------------------------|----|
|-----------------------------------------------------------------------| ---|
|-2------5------2------8------2------14-----10------9-----10-----10----------|
|-0-0000-3-0000-0-0000-6-0000-0-0000-12-0000-7-0000-6-0000-8-0000-7-0000-----|
                                                                          x2
|----------------------------------------------------------------------------|
|-----------------------------------------------------------------------| ---|
|-----------------------------------------------------------------------|----|
|------------------------------------2---------------------------------------|
|-9------5------8------5------8------2---------------------------------------|
|-6-0000-3-0000-6-0000-3-0000-6-0000-0---------------------------------------|

That's all I have tabbed out. If someone else could tab the arpeggios and other stuff 
be much appreciated.
Related for Fury Whip tab
Fury Whip chords by High On Fire