Song name
# A B C D E F G H I J K L M N O P Q R S T U V W X Y Z

High On Fire - Samsara tab

Song: Samsara
Artist: High on Fire
Album: De Vermis Mysteriis
Tuning: C Standard
C-F-A#-D#-G-C

Brutal album! This tab is just the main riff played by the rhythm guitar
throughout the song behind the solo. 

C |------------------------------------------------------------------|
G |------------------------------------------------------------------|
D#|---------------7----------------------7---------------------------|
A#|------------9-----9----------------9-----9--7---------------------|
F |--7--9--10---------------7--9--10--------------10-----------------|
C |------------------------------------------------------------------|

C |------------------------------------------------------------------|
G |------------------------------------------------------------------|
D#|---------------7--------------------------------------------------|
A#|------------9-----9--7------9--7----------------------------------|
F |--7--9--10--------------10--------10--9--5------------------------|
C |------------------------------------------------------------------|

Easy enough right? This is my first tab so any CONSTRUCTIVE criticism is
more than welcome. Again, this is just the rhythm guitar part. If you figure
out the solo, more power to you!
Just message me on here or email me at dawgzfan66@yahoo.com if you have any
questions.
Have fun and keep on rocking! \m/
Tap to rate this tab
# A B C D E F G H I J K L M N O P Q R S T U V W X Y Z