Song name
# A B C D E F G H I J K L M N O P Q R S T U V W X Y Z

High On Fire - Snakes For The Divine tab

Artist: High on Fire
Song: Snakes for the Divine
Album: Snakes for the Divine
Tuning: C Standard (C-F-Bb-Eb-G-c)

Intro x6

c |--7p0-------7p0--5p0--7p0-------7p0--5p0--7p0-----7p0--5p0--7p0--5p0--10p0--9p0--|
G |-------5p0-----------------5p0----------------5p0--------------------------------|
Eb|o--------------------------------------------------------------------------------|
Bb|o--------------------------------------------------------------------------------|
F |---------------------------------------------------------------------------------|
C |---------------------------------------------------------------------------------|

c |---3p0-------3p0-------3p0-------3p0-------5p0-------5p0-------5p0--3p0--2p0-------|
G |--------5p0-------5p0-------5p0-------5p0-------3p0-------3p0-----------------3p0--|
Eb|----------------------------------------------------------------------------------o|
Bb|----------------------------------------------------------------------------------o|
F |-----------------------------------------------------------------------------------|
C |-----------------------------------------------------------------------------------|

Verse

c |-------------------------------------------------------------------------------------------|
G |-------------------------------------------------------------------------------------------|
Eb|o------------------------------------------------------------------------------------------|
Bb|o------------------------------------------------------------------------------------------|
F |-14\--------------------------------------14\12-------14\8-------14\5------14\3------------|
C |-12\000000000000000000000000000000000000--12\10-0000--12\6-0000--12\3-0000-12\1-0000-------|

c |-----------------------------------------------------------------------------------------------|
G |-----------------------------------------------------------------------------------------------|
Eb|----------------------------------------------------------------------------------------------o|
Bb|----------------------------------------------------------------------------------------------o|
F |-3-2-----------------------------------------6---6---6--6--6--------12---12---12--12---12---12-|
C |-1-0--000000000000000000000000000000000000---4---4---4--4--4----0---10---10---10--10---10---10-|
Tap to rate this tab
# A B C D E F G H I J K L M N O P Q R S T U V W X Y Z