Guitaretab - guitar tabs
Song name
# A B C D E F G H I J K L M N O P Q R S T U V W X Y Z

Hives - Tick Tick Boom tab

Tick Boom by The Hives


e|-------------------------------|
B|-------------------------------|keep playing until chorus 1
G|------9-7-7-7---------9-7-7-7--|
D|--9-9-9-7-7-77-9-9-9-9-7-7-7--|
A|--9-9-7-5-5-57-9-9-9-7-5-5-5--|
E|--7-7---------5-7-7-7----------|


Chorus1:

  e|-------------------|
  B|-------------------|
  G|--------9-------12-|
  D|--------9-------12-|
  A|--------7-------10-|
  E|-------------------|


e|-------------------------------|
B|-------------------------------|keep playing until chorus2
G|------9-7-7-7---------9-7-7-7--|
D|--9-9-9-7-7-77-9-9-9-9-7-7-7--|
A|--9-9-7-5-5-57-9-9-9-7-5-5-5--|
E|--7-7---------5-7-7-7----------|


       Chorus 2                                                        boom
  E[--------------------------------------------------------------------0---|
  B[--------------------------------------------------------------------0---|
  G[-----------99999---1212121212---77777-------------------------------0---|
  D[-----------99999---1212121212---77777---77777---55555---------------0---|
  A[-----------77777---1010101010---55555---77777---55555---------------0---|
  E[----------------------------------------55555---33333---------------0---|

e|-------------------------------|
B|-------------------------------|keep playing until chorus 3
G|------9-7-7-7---------9-7-7-7--|
D|--9-9-9-7-7-77-9-9-9-9-7-7-7--|
A|--9-9-7-5-5-57-9-9-9-7-5-5-5--|
E|--7-7---------5-7-7-7----------|

[ Tab from: http://www.guitaretab.com/h/hives/95539.html ]
       Chorus 3                                                       boom
  e|--------------------------------------------------------------------0----|
  B|--------------------------------------------------------------------0----|
  G|-----------99999---1212121212---77777-------------------------------0----|
  D|-----------99999---1212121212---77777---77777---55555---------------0----|
  A|-----------77777---1010101010---55555---77777---55555---------------0----|
  E|----------------------------------------55555---33333---------------0----|


        Bridge
         e|-------------------------------|
         B|-------------------------------|keep playing until chorus 4
         G|------9-7-7-7---------9-7-7-7--|
         D|--9-9-9-7-7-77-9-9-9-9-7-7-7--|
         A|--9-9-7-5-5-57-9-9-9-7-5-5-5--|
         E|--7-7---------5-7-7-7----------|

                Chorus 4 x2                                           boom
  e|--------------------------------------------------------------------0---|
  B|--------------------------------------------------------------------0---|
  G|-----------99999---1212121212---77777-------------------------------0---|
  D|-----------99999---1212121212---77777---77777---55555---------------0---|
  A|-----------77777---1010101010---55555---77777---55555---------------0---|
  E|----------------------------------------55555---33333---------------0---|


              Keep play till end
         e|---------------------0|boom
         B|---------------------0|
         G|---------------------0|
         D|----999999999--------0|
         A|----999999999--------0|
         E|----777777777--------0|
Related for Tick Tick Boom tab