Song name
# A B C D E F G H I J K L M N O P Q R S T U V W X Y Z

Hollywood Undead - City tab

City
Hollywood Undead 
Tabbed by: misfits750@hotmail.com 


I know there is no guitar during this song (except palm muted 
during the verses) but I tabbed how I play it. 

Tuning: Drop D

Intro 
e|----------------------------------------|
B|----------------------------------------|
G|----------------------------------------|
D|----------------------------------------|
A|-8----4----11----6--3---8----4----11----|
D|----------------------------------------|


Chorus 
e|---------------------------------------------------------------------|
B|---------------------------------------------------------------------|
G|---------------------------------------------------------------------|
D|-8-8-8-8-8-8-8-8-4-4-4-4-4-4-4-4-6-6-6-6-6-6-6-6-1-1-1-1-10-10-10-10-|
A|-8-8-8-8-8-8-8-8-4-4-4-4-4-4-4-4-6-6-6-6-6-6-6-6-1-1-1-1-10-10-10-10-|
D|-8-8-8-8-8-8-8-8-4-4-4-4-4-4-4-4-6-6-6-6-6-6-6-6-1-1-1-1-10-10-10-10-|


Verse 
e|---------------------------------|
B|---------------------------------|
G|---------------------------------|
D|-8-8----4-4----6-6----1-1--10-10-|
A|-8-8----4-4----6-6----1-1--10-10-|
D|-8-8----4-4----6-6----1-1--10-10-|
PM . .    . .    . .    . .  .  .


Pre Chorus 
e|----------------------|
B|----------------------|
G|----------------------|
D|----------------------|
A|-8----4----11----6--3-|
D|----------------------|


Bridge 
e|---------------------------------|
B|---------------------------------|
G|---------------------------------|
D|-8-8-8-8-3-3-3-3-4-4-4-4-1-1-1-1-|
A|-8-8-8-8-3-3-3-3-4-4-4-4-1-1-1-1-|
D|-8-8-8-8-3-3-3-3-4-4-4-4-1-1-1-1-|
PM . . . . . . . . . . . . . . . . 

e|---------------------------------|
B|---------------------------------|
G|---------------------------------|
D|-8-8-8-8-3-3-3-3-4-4-4-4-1-1-1-1-|
A|-8-8-8-8-3-3-3-3-4-4-4-4-1-1-1-1-|
D|-8-8-8-8-3-3-3-3-4-4-4-4-1-1-1-1-|
Tap to rate this tab
# A B C D E F G H I J K L M N O P Q R S T U V W X Y Z