Song name
# A B C D E F G H I J K L M N O P Q R S T U V W X Y Z

Hollywood Undead - Rain chords

This is my first tab,but this is accurate.The other one was great,but I'm kinda
picky.I just hate having tabs without lyrics.
Anyways,no capo needed,standard tuning,and strumming pattern is up to you.Enjoy :)

[Intro]
e---3-------3-------2-------2---7---0-------0-------2--------2--------------|
B-----0---------------0---------------0---------------0---------------------|
G-------0------0--------0---------------0------0--------0-------0-----------|
D---2-------2-------0-------0---5-------------------0--------0--------------|
A-----------------------------------3-------3-------------------------------|
E---------------------------------------------------------------------------|

[Chorus]:Charlie Scene
Em              D                    Bm           C
I don't mind,no I don't mind,I don't mind the rain.
Em                  D             Bm                  C
Simple things and subtleties,they always stay the same.
Em                D                       G            C
I don't mind,that I don't mind,no I don't mind the rain,
Em                   D                Bm                 C
Like a widow's heart,we'll fall apart,but never fade away.
 Em
(Fade away)

[Verse]:Johnny 3 Tears
(If you don't want to re-learn this all choppy like,it's just the intro.Every 
transaction is just the switching of the frets)

Told like a child do you know where I came from?
e---3-------3----|
B-----0----------|
G-------0------0-|
D---2-------2----|

No I don't, but I'm singing all the same songs.
e---2-------2---7-|
B------0----------|
G--------0--------|
D---0-------0---5-|

I'm alone, and you're looking for your anyone.
e--0-------0------|
B----0------------|
G-------0------0--|
D-----------------|
A--3-------3------|

Does it hurt just to know that it's all gone?
e--2--------2------|
B----0-------------|
G-------0-------0--|
D--0--------0------|

I can feel the pain in the words that you say.
e---3-------3----|
B-----0----------|
G-------0------0-|
D---2-------2----|

Hidden in the letters that were written to no name.
e---2-------2---7-|
B------0----------|
G--------0--------|
D---0-------0---5-|
Let me be the hands that you hold to your face.
e--0-------0------|
B----0------------|
G-------0------0--|
D-----------------|
A--3-------3------|
Cause I'd give it all up if I could take it away.
e--2--------2------|
B----0-------------|
G-------0-------0--|
D--0--------0------|
Buried in red, white, and a side of some blue.
e---3-------3----|
B-----0----------|
G-------0------0-|
D---2-------2----|
Some will die too late, and somebody too soon.
e---2-------2---7-|
B------0----------|
G--------0--------|
D---0-------0---5-|
If he could come back, we'll see what it cost him.
e--0-------0------|
B----0------------|
G-------0------0--|
D-----------------|
A--3-------3------|
We had to lose it all, just to know that we lost one.
e--2--------2------|
B----0-------------|
G-------0-------0--|
D--0--------0------|
Hi, I am just a shape in the shadow of greats.
e---3-------3----|
B-----0----------|
G-------0------0-|
D---2-------2----|
Hi, I am just a voice in the choir of saints.
e---2-------2---7-|
B------0----------|
G--------0--------|
D---0-------0---5-|
Oh, all the souls that nobody could save.
e--0-------0------|
B----0------------|
G-------0------0--|
D-----------------|
A--3-------3------|
And just like a light, we faded away.
e--2--------2------|
B----0-------------|
G-------0-------0--|
D--0--------0------|

[Chorus]:Charlie Scene
Em              D                    Bm           C
I don't mind,no I don't mind,I don't mind the rain.
Em                  D             Bm                  C
Simple things and subtleties,they always stay the same.
Em                D                       G            C
I don't mind,that I don't mind,no I don't mind the rain,
Em                   D                Bm                 C
Like a widow's heart,we'll fall apart,but never fade away.
[Danny]
 (Intro tab)
(Fade away,As I fade away,away,away.)

[Verse 2]:Charlie Scene

If I could take it all back.
e---3-------3----|
B-----0----------|
G-------0------0-|
D---2-------2----|
Before the flags were forced to wave at half mast.
e--0-------0------|
B----0------------|
G-------0------0--|
D-----------------|
A--3-------3------|
That was long before my heart became black.
e--0-------0------|
B----0------------|
G-------0------0--|
D-----------------|
A--3-------3------|
There's no way to make it change or go back.
e--2--------2------|
B----0-------------|
G-------0-------0--|
D--0--------0------|
You know that some of us grow old, with no home.
e---3-------3----|
B-----0----------|
G-------0------0-|
D---2-------2----|
Some of us die in a cold house, with no hope.
e--0-------0------|
B----0------------|
G-------0------0--|
D-----------------|
A--3-------3------|
Still surrounded by the people you don't know, so don't go.
e--0-------0------|
B----0------------|
G-------0------0--|
D-----------------|
A--3-------3------|
Cause once it's over the time fades your photo.
e--2--------2------|
B----0-------------|
G-------0-------0--|
D--0--------0------|
How many goodbyes can fit in a lifetime?
e---3-------3----|
B-----0----------|
G-------0------0-|
D---2-------2----|
How many good lies can make it seem alright?
e--0-------0------|
B----0------------|
G-------0------0--|
D-----------------|
A--3-------3------|
What do you see when you look into my eyes?
e--0-------0------|
B----0------------|
G-------0------0--|
D-----------------|
A--3-------3------|
Or in the sky right before you say goodnight?
e--2--------2------|
B----0-------------|
G-------0-------0--|
D--0--------0------|
I could be the son that stands beside of your bed.
e---3-------3----|
B-----0----------|
G-------0------0-|
D---2-------2----|
And I could be the voice right inside of your head.
e--0-------0------|
B----0------------|
G-------0------0--|
D-----------------|
A--3-------3------|
I could say goodbye and you know where I went.
e--0-------0------|
B----0------------|
G-------0------0--|
D-----------------|
A--3-------3------|
I just wrote a letter that'll never be sent.
e--2--------2------|
B----0-------------|
G-------0-------0--|
D--0--------0------|

[Chorus]:Charlie Scene
Em              D                    Bm           C
I don't mind,no I don't mind,I don't mind the rain.
Em                  D             Bm                  C
Simple things and subtleties,they always stay the same.
Em                D                       G            C
I don't mind,that I don't mind,no I don't mind the rain,
Em                   D                Bm                 C
Like a widow's heart,we'll fall apart,but never fade away.
[Danny]
 (Intro tab)
Fade away,As I fade away,away,away.
As I fade away,away,away.
As I fade away,fade away.
As I fade away.

And there you go.Please rate and leave request :)
Tap to rate this tab
# A B C D E F G H I J K L M N O P Q R S T U V W X Y Z