Song name
# A B C D E F G H I J K L M N O P Q R S T U V W X Y Z

Honor Society - Where Are You Now tab

e|---------------------------------------|
A|---------------------------------------|
D|---------------------------------------|
G|------------------------------------8--|
B|--8--6---8-7/8-------6-8-8/9--8--6-----|x2
E|---------------------------------------|

e|-------------------------------------------------------------|
A|-------------------------------------------------------------|
D|-------------------------------------------------------------|
G|-------------------------7-------------12----7-8-------------|
B|--6-8-8/9-9-9--8--6h8p6--------/11-11-------------6h8-8/9-8--|
E|-------------------------------------------------------------|

first tab done by ear. I apologize for any mistakes. 
Tap to rate this tab
# A B C D E F G H I J K L M N O P Q R S T U V W X Y Z