Hoobastank - The Letter tab

Intro
Clean with light vibrato or sine chorus effect
----------------------------------------------------------------------------|
--8----8----8----8----------------------------10----------------------------|
--9----9----9----9-----12-----12------------11--11--------------------------|
----9----9----10---10--12-----12----------12------12------------------------|
--------------------------10-----10---7s9-----------------------------------|
----------------------------------------------------------------------------|

Distorted guitar starts (listen to song for rythm) repeat twice
--7----------7--------------------------------------------------------------|
--8----------8-----------------------10-------------------------------------|
--9----------9----------12-----------11-------------------------------------|
--9----------10---------12-----------12-------------------------------------|
--7----------7----------10--------------------------------------------------|
----------------------------------------------------------------------------|

Verse 1
Clean sound, repeat twice
----------------------------------------------------------------------------|
--12--10--8--12--13--10----12--10--8--7v------------------------------------|
--12--11--9--12--14--11----12--11--9--8v------------------------------------|
----------------------------------------------------------------------------|
----------------------------------------------------------------------------|
----------------------------------------------------------------------------|

Chorus, repeat twice
--7----------7--------------------------------------------------------------|
--8----------8-----------------------10-------------------------------------|
--9----------9----------12-----------11-------------------------------------|
--9----------10---------12-----------12-------------------------------------|
--7----------7----------10--------------------------------------------------|
----------------------------------------------------------------------------|

then listen for the different rythm (not sure what he plays after B with a funky

sound, probably another variation of B played up higher)
--7----------7----------------------------------------------------------------|
--8----------8-----------------------10--------4------------------------------|
--9----------9----------12-----------11--------4------------------------------|
--9----------10---------12-----------12--------4------------------------------|
--7----------7----------10---------------------2------------------------------|
------------------------------------------------------------------------------|

Play the same chords as the start of the chorus once more then back into the clean

part again for Verse 2 (i.e. same as verse 1)

Repeat Chorus

Solo using wah
--12--13--14---------13--14-------------------------------------------------|
--------------12b13----------12--11-11-11--12--14--12--12-------------------|
----------------------------------------------------------------------------|
----------------------------------------------------------------------------|
----------------------------------------------------------------------------|
----------------------------------------------------------------------------|


-12----------------12----------------12-----------------12-------------------|
---12------------12--12------------12--12-------------12--12------------12---|
-----12-11--11-12------12-11--11-12------12-11---11-12------12-11--11-12-----|
----------14----------------14----------------14-----------------14-------14-|
-----------------------------------------------------------------------------|
-----------------------------------------------------------------------------|

Play verse part twice then repeat chorus twice (listen for stacato part on last

chorus repeat)

End
Steve R.
Tap to rate this tab
 
# A B C D E F G H I J K L M N O P Q R S T U V W X Y Z