Song name
# A B C D E F G H I J K L M N O P Q R S T U V W X Y Z

Hot Action Cop - Fever For The Flava tab

-------------------------------------------------------------------------------
			 Fever For the Flava- Hot Action Cop
-------------------------------------------------------------------------------
Tabbed by: Lucas Stewart (ShiftyNermal)
Email: commonce@hotmail.com

Most of the other tabs on here did sound right, but I tried the song out in Drop D, and
sounded better in my opinion. Theres no tab on here for this song in Drop D, so I
to tab it. You can try it out and see which you like more.

Tuning: Drop D (DADGBE)

Intro/Verse (Lead Guitar):
e|---------------------------------------------------------------------------|
B|---------------------------------------------------------------------------|
G|---------------------------------------------------------------------------|
D|-----6-7p6---6-9-9------6-7p6---6------------------------------------------|
A|-7-7-------7--------7-7-------7---9-9--------------------------------------|(x4)
D|---------------------------------------------------------------------------|
   ....................................

  (Rhythm Guitar): Play the forth time Lead Guitar plays riff above
e|---------------------------------------------------------------------------|
B|---------------------------------------------------------------------------|
G|---------------------------------------------------------------------------|
D|-2-2--2-2--2-2---------2-2--2-2--2-----------------------------------------|
A|-2-2--2-2--2-2---------2-2--2-2--2-----------------------------------------|
D|-2-2--2-2--2-2--2b4r2--2-2--2-2--2-----------------------------------------|(x1)
   .............         ...........

Pre Chorus (Rhythm Guitar):
e|---------------------------------------------------------------------------|
B|---------------------------------------------------------------------------|
G|---------------------------------------------------------------------------|
D|-2-2--x-1--x-6-6/7-4-4-----------------------------------------------------|
A|-2-2--x-1--x-6-6/7-4-4-----------------------------------------------------|
D|-2-2--x-1--x-6-6/7-4-4-----------------------------------------------------|(x3)

Chorus (Rhythm Guitar):
e|---------------------------------------------------------------------------|
B|---------------------------------------------------------------------------|
G|---------------------------------------------------------------------------|
D|-2-2-2-6-6-6-6-6-7-7-7-9-9-9-9-9-9-----------------------------------------|
A|-2-2-2-6-6-6-6-6-7-7-7-9-9-9-9-9-9-----------------------------------------|
D|-2-2-2-6-6-6-6-6-7-7-7-9-9-9-9-9-9-----------------------------------------|(X3)

Chorus Continued (Rhythm Guitar):
e|---------------------------------------------------------------------------|
B|---------------------------------------------------------------------------|
G|---------------------------------------------------------------------------|
D|-4-4-4-4-4-4-4-4-7-7-7-7-7-7-7-7-4-4-4-4-4-4-------------------------------|
A|-4-4-4-4-4-4-4-4-7-7-7-7-7-7-7-7-4-4-4-4-4-4-------------------------------|
D|-4-4-4-4-4-4-4-4-7-7-7-7-7-7-7-7-4-4-4-4-4-4-------------------------------|(x1)

From here you should then play the Pre-Chorus one time,

And then the Intro/Verse five times.(Play the lead guitar part the full time, and the
the second and forth time)

Next you play the Pre Chorus again, but it's a little different this time:

Pre Chorus (Rhythm Guitar):
e|---------------------------------------------------------------------------|
B|---------------------------------------------------------------------------|
G|---------------------------------------------------------------------------|
D|-2-2--x-1--x-6-6/7-4-4-x--x-x-x--x-x-x--x----------------------------------|
A|-2-2--x-1--x-6-6/7-4-4-x--x-x-x--x-x-x--x----------------------------------|
D|-2-2--x-1--x-6-6/7-4-4-x--x-x-x--x-x-x--x----------------------------------|(x3)

Next Play the Chorus as you did the first time.

After this comes another verse, but the guitar is playing the Pre Chorus. Play the
pre chorus from above four times.

Bridge (Rhythm Guitar):
e|---------------------------------------------------------------------------|
B|---------------------------------------------------------------------------|
G|---------------------------------------------------------------------------|
D|-2--2-0-3-4-0-3-4-0-3-4-0-3-4----------------------------------------------|
A|-2--2-0-3-4-0-3-4-0-3-4-0-3-4----------------------------------------------|
D|-2--2-0-3-4-0-3-4-0-3-4-0-3-4----------------------------------------------|(x9)

Solo (Lead Guitar) (Played over the Bridge 5th time, add a lil tremelo effect here)
e|------------------------------------------------------|
B|--------------------------------------17--------------|
G|-9---------11------12-------14--------x-(x15)---------|
D|-x(x15)----x-(x15)-x--(x15)-x--(x15)--14--------------|
A|-7---------9-------10-------12------------------------|
E|------------------------------------------------------|

Then play thw Intro/Verse twice, followed by the Pre-Chorus three times.

Next is the Chorus again, followed by the Pre-Chorus riff four times.

End the song by playing the Bridge part (without solo) four times, and end the song by
the E5 Chord twice.

And that's it, happy playing everyone.


| /  slide up
| \  slide down
| h  hammer-on
| p  pull-off
| ~  vibrato
| +  harmonic
| x  Mute note
| .  Palm Mute
| b  Bend
| r  Release
===============================================================================
Tap to rate this tab
# A B C D E F G H I J K L M N O P Q R S T U V W X Y Z