Song name
# A B C D E F G H I J K L M N O P Q R S T U V W X Y Z

Hot Action Cop - Why Judy tab

e|-------------------------------------------------------------|
B|---------3p0-----------3p0-----------------------------------|
G|---------------0-----------0---------2/4-4-4-2---------------|
D|------------------------------------------------4-2-2-2/4----|
A|--2--2------------0-0----------------------------------------|
E|--------------------------------3-3--------------------------|


                                                      
e|-----------------------------------------5--7----------------|
B|---------3p0-----------3p0-----------------------------------|
G|---------------0-----------0---------------------------------|
D|-------------------------------------------------------------|
A|--2--2------------0-0----------------------------------------|
E|--------------------------------3-3--------------------------|
Tap to rate this tab
# A B C D E F G H I J K L M N O P Q R S T U V W X Y Z