Song name
# A B C D E F G H I J K L M N O P Q R S T U V W X Y Z

Hundred Reasons - No Way Back tab

-------------------------------------------------------------------------------
			     No Way Back - Hundred Reasons
-------------------------------------------------------------------------------
Tabbed by: slurms
Email: slurms.mckenzie@hotmail.com

Tuning: EADGBE


Intro/Verse (Repeat From 0 - 40 secs)
e|-------------------------------------------------|
B|-------------------------------------------------|
G|-10-10-----10-10------5-5------------------------|
D|-10-10-----10-10------5-5------------------------|
A|-8--8--(x5)--7--7-(x5)--3-3--(x5)----------------|
E|-------------------------------------------------|


Pre Chorus (Play 40 - 56 secs)
e|----------------------------------------------------------------------------------|
B|----------------------------------------------------------------------------------|
G|---10--------------------10------------------9-9-9-9-9-9-9-9----------------------|
D|---10--------------------10------------------x-x-x-x-x-x-x-x----------------------|  x2
A|---8--let ring out-------7-let ring out---7-7-7-7-7-7-7-7-------------------------|
E|----------------------------------------------------------------------------------|

Chorus (Play from 56 secs - 1.14 mins
e|--------------------------------------------------------|
B|--------------------------------------------------------|
G|-----------------------5-5-5-5-5-5-5-5------------------|
D|--8-8-8-8--3-3-3--5-5-5-5-5-5-5-5-----------------------|
A|--8-8-8-8--3-3-3--3-3-3-3-3-3-3-3-----------------------| x4
E|--6-6-6-6--1-1-1----------------------------------------|

Verse (Repeat From 1.15 - 1.43 mins)
e|-----------------------------------------------------|
B|-----------------------------------------------------|
G|-10-10-----10-10------5-5----------------------------|
D|-10-10-----10-10------5-5----------------------------|
A|-8--8--(x5)--7--7-(x5)--3-3--(x5)--------------------|
E|-----------------------------------------------------|

Pre Chorus (Play 1.44 - 1.58 mins)
e|----------------------------------------------------------------------------------|
B|----------------------------------------------------------------------------------|
G|---10--------------------10------------------9-9-9-9-9-9-9-9----------------------|
D|---10--------------------10------------------x-x-x-x-x-x-x-x----------------------|  x2
A|---8-- let ring out------7-let ring out---7-7-7-7-7-7-7-7-------------------------|
E|----------------------------------------------------------------------------------|

Chorus (Play from 1.59 - 2.18 mins)
e|--------------------------------------------------------|
B|--------------------------------------------------------|
G|-----------------------5-5-5-5-5-5-5-5------------------|
D|--8-8-8-8--3-3-3--5-5-5-5-5-5-5-5-----------------------|
A|--8-8-8-8--3-3-3--3-3-3-3-3-3-3-3-----------------------| x4
E|--6-6-6-6--1-1-1----------------------------------------|


Interlude (Play from 2.19 - 2.49 mins)
e|--------------------------------------------------------------------------------|
B|--------------------------------------------------------------------------------|
G|--5-5-5-5-5-5-5-5--3-3-3-3-3-3-3-3--3-3-3-3-3-3-3-3--3-3-3-3-3-3-3-3------------|
D|--5-5-5-5-5-5-5-5--3-3-3-3-3-3-3-3--3-3-3-3-3-3-3-3--3-3-3-3-3-3-3-3---|   x 4--|
A|--3-3-3-3-3-3-3-3--1-1-1-1-1-1-1-1--0-0-0-0-0-0-0-0--1-1-1-1-1-1-1-1------------|
E|--------------------------------------------------------------------------------|


Chorus (Play from 2.50 - 3.22 mins)
e|--------------------------------------------------------|
B|--------------------------------------------------------|
G|-----------------------5-5-5-5-5-5-5-5------------------|
D|--8-8-8-8--3-3-3--5-5-5-5-5-5-5-5-----------------------|
A|--8-8-8-8--3-3-3--3-3-3-3-3-3-3-3-----------------------|   x8
E|--6-6-6-6--1-1-1----------------------------------------|


Strum This Chord Till End
e|-----------|
B|-----------|
G|--10-------|
D|--10-------|
A|--8--------|
E|-----------|

| /  slide up
| \  slide down
| h  hammer-on
| p  pull-off
| ~  vibrato
| +  harmonic
| x  Mute note
===============================================================================
Tap to rate this tab
# A B C D E F G H I J K L M N O P Q R S T U V W X Y Z