Song name
# A B C D E F G H I J K L M N O P Q R S T U V W X Y Z

Hundred Reasons - Stories With Unhappy Endings tab

-------------------------------------------------------------------------------
			     Stories with unhappy endings - Hundred reasons
-------------------------------------------------------------------------------
Tabbed by: time hat
Email: suburbanninja01@gmail.com

Tuning: DADGBD

{play 4x

d|-------------3-3-3-3-3-3---------------3-3-3-3-3-3---------------3-3-3-3-3-3-|
B|-------------6-6-6-6-6-6---------------6-6-6-6-6-6---------------5-5-5-5-5-5-|
G|-----------------------------------------------------------------------------|
D|-----------------------------------------------------------------------------|
A|5-5-5-5-5-5---------------5-5-5-5-5-5---------------3-3-3-3-3-3--------------|
D|5-5-5-5-5-5---------------5-5-5-5-5-5---------------3-3-3-3-3-3--------------|

...continued 
d|-------------3-3-3-3-3-3-|
B|-------------4-4-4-4-4-4-|
G|-------------------------|
D|-------------------------|
A|3-3-3-3-3-3--------------|
D|3-3-3-3-3-3--------------|

}

{play 4x

d|-5-5-5-6-6-6-10-10-10--|
B|-5-5-5-5-5-5-8--8--8---|
G|-----------------------|
D|-----------------------|
A|-----------------------|
D|-----------------------|

}

{play 4x, plucking 3rd time

D|-10-10-10-10-10-10-10-10-10-|
B|-10-10-10-9--9--9--8--8--8--|
G|----------------------------|
D|----------------------------|
A|----------------------------|
D|----------------------------|

}

thats as much as i care to figure out...

| /  slide up
| \  slide down
| h  hammer-on
| p  pull-off
| ~  vibrato
| +  harmonic
| x  Mute note
===============================================================================
Tap to rate this tab
# A B C D E F G H I J K L M N O P Q R S T U V W X Y Z