Song name
# A B C D E F G H I J K L M N O P Q R S T U V W X Y Z

Ill Nino - This Is War tab

Help us improve GuitareTab! Take a short survey!
Band: Ill Nino
Song: This Is War
Tabbed By: Killswitch_mike (Only On UltimateGuitar.com)
Album: One Nation Underground (Roadrunner Records 2005 ) Track # 1 

.. = palm mute   / = slide down   \ = slide up   * Pinch Harmonic
p = pull-off    h = hammer-on    

Guitar I - Ahrue     Guitar II - Jardel 

Intro: (Heavily Distorted)

D|-------------------------------|
A|-------------------------------|
F|-------------------------------|
C|-00-0000-00-000-00-0000-00-000-|
G|-00-0000-00-000-00-0000-00-000-|
C|-00-0000-00-000-00-0000-00-000-|
   .. .... .. ... .. .... .. ...

D|-------------------------------------------------|
A|-------------------------------------------------|
F|----------------------------------------------5*-|
C|-------------------------------------------------| x 4
G|-------------------------------------------------|
C|--0000-12-00-13-00-12-0-6-0000-12-00-13-00-12----|

Fill: ( Bass put to lowest on control knob )


D|--------------|
A|--------------|
F|--------------|
C|-0-1-0-0-1-0--| x 4
G|-0-1-0-0-1-0--|
C|-0-1-0-0-1-0--|

Verse: ( Turn Bass Up To Full )

D|-------------|
A|-------------| Guitar I Plays This 16 Times
F|-------------| Guitar II Plays This 3 times Then Plays this...
C|-0-1-0-0-1-0-|
G|-0-1-0-0-1-0-|
C|-0-1-0-0-1-0-|

D|----------------|
A|----------------|
F|---------7------|
C|---------7------| Play This Four Times ( Guitar II )
G|---------5------|
C|-0-1-0-0---0-6~-|

Chorus :

(Both Guitars)

D|----------------------------------|
A|----------------------------------|
F|----------------------------------|
C|-77777-777-77-77-733333-333-33-33-| x 2  Then Guitar I and II
G|-77777-----77----733333-----33----|      Play Different Parts..
C|-77777-----77----733333-----33---3|
   ..... ... .. .. ...... ... .. ...

Guitar I                       Guitar II

D|------------------|          D|----------------|
A|------------------|          A|----------------|
F|------------------|          F|--7--5--8--7--5-|
C|-0000-00-00-00000-| x2       C|--x--x--x--x--x-| x 2
G|-0000-00-00-00000-|          G|--5--3--6--5--3-|
C|-0000-00-00-00000-|          C|----------------|
   .... .. .. .....

Fill:

D|-------------------------------------------------|
A|-------------------------------------------------|
F|----------------------------------------------5*-|
C|-------------------------------------------------| x 4
G|-------------------------------------------------|
C|--0000-12-00-13-00-12-0-6-0000-12-00-13-00-12----|

Fill: ( Bass put to lowest on control knob )


D|--------------|
A|--------------|
F|--------------|
C|-0-1-0-0-1-0--| x 2 
G|-0-1-0-0-1-0--|
C|-0-1-0-0-1-0--|

Verse: ( Turn Bass Up To Full )

D|-------------|
A|-------------| Guitar I Plays This 16 Times
F|-------------| Guitar II Plays This 3 times Then Plays this...
C|-0-1-0-0-1-0-|
G|-0-1-0-0-1-0-|
C|-0-1-0-0-1-0-|

D|----------------|
A|----------------|
F|---------7------|
C|---------7------| Play This Four Times ( Guitar II )
G|---------5------|
C|-0-1-0-0---0-6~-|

Chorus :

(Both Guitars)

D|----------------------------------|
A|----------------------------------|
F|----------------------------------|
C|-77777-777-77-77-733333-333-33-33-| x 2  Then Guitar I and II
G|-77777-----77----733333-----33----|      Play Different Parts..
C|-77777-----77----733333-----33---3|
   ..... ... .. .. ...... ... .. ...

Guitar I                       Guitar II

D|------------------|          D|----------------|
A|------------------|          A|----------------|
F|------------------|          F|--7--5--8--7--5-|
C|-0000-00-00-00000-| x2       C|--x--x--x--x--x-| x 2
G|-0000-00-00-00000-|          G|--5--3--6--5--3-|
C|-0000-00-00-00000-|          C|----------------|
   .... .. .. .....

Fill:

D|-------------------------------------------------|
A|-------------------------------------------------|
F|----------------------------------------------5*-|
C|-------------------------------------------------| x 4
G|-------------------------------------------------|
C|--0000-12-00-13-00-12-0-6-0000-12-00-13-00-12----|

D|----|
A|----|
F|----|
C|-0~-|
G|-0~-|
C|-0~-|

Solo: Ive Only Been Able To Figure Out The Chords Thats in Ahrues Part
(clean or acoustic)
D|-5~---5~---1~---1~--0~-|
A|-3~---3~---1~---1~--1~-|
F|-2~---5~---3~---3~--2~-|
C|-0~---5~---3~---3~--2~-|
G|-----------------------|
C|-----------------------|

Fill: Both Guitars Fades in With A phaser effect Playing 
The Main Riff 6 times. But guitar 

Fill:

D|-------------------------------------------------|
A|-------------------------------------------------|
F|----------------------------------------------5*-|
C|-------------------------------------------------| x 6
G|-------------------------------------------------|
C|--0000-12-00-13-00-12-0-6-0000-12-00-13-00-12----|

When Both Guitars Play This Guitar II Plays This After Its Played The Main
Riff Twice

Guitar II                       
D|------------------|        
A|------------------|          
F|------------------|          
C|-0000-00-00-00000-| x2   
G|-0000-00-00-00000-|         
C|-0000-00-00-00000-|
   .... .. .. .....

Outro: Both Guitars

D|-----|
A|-----|
F|-----|
C|-0-0-|
G|-0-0-|
C|-0-0-| 
   . .         
Related for This Is War tab