Song name
# A B C D E F G H I J K L M N O P Q R S T U V W X Y Z

Ill Nino - Rumba tab

Band - Ill Nino
Song - Rumba
Album -  Revolution / Revolución ( 2001 Roadrunner Records )
Tabber - Killswitch_mike

Tuning - Low To High - CGCFAD

x = Mute Note
. = Palm mute

Intro;


D||------||    ||-----||
A||------||    ||-----||
F||------||    ||-----||
C||--2~--||Then||--3--||
G||--2~--||    ||--3--||
C||--2~--||    ||--3--||
                  .     

Chorus;

Guitar I

D||--------------------------------||
A||--------------------------------||
F||--------------------------------||
C||--2-2-0--2-2-0--2-2-0--5-3-3-5--||
G||--2-2-0--2-2-0--2-2-0--5-3-3-5--||
C||--2-2-0--2-2-0--2-2-0--5-3-3-5--||

Guitar II

D||-------------------------------------||
A||-------------------------------------||
F||--9-9-7--9-9-7--9-9-7---12-10-10-12--||
C||--x-x-x--x-x-x--x-x-x----x--x--x-x---||
G||--7-7-5--7-7-5--7-7-5---10--8--8-10--||
C||-------------------------------------||

Verse;
D||-----------------------------------------------||
A||-----------------------------------------------||
F||------------------------------10-10--10-10-10--||
C||--7~----------10-10--10-10-10-10-10--10-10-10--||
G||--7~----------10-10--10-10-10--8--8---8--8--8--||
C||--7~----------10-10--10-10-10------------------||


D||-------------------||
A||-------------------||
F||-------------------||
C||--10-10-10--3-3-3--||
G||--10-10-10--3-3-3--||
C||--10-10-10--3-3-3--||

Fill;

D||------------------------||
A||------------------------||
F||------------------------||
C||-2~-----3~-----5--3--5--||
G||-2~-----3~-----5--3--5--||
C||-2~-----3~-----5--3--5--||

Interlude; ( With Wah Pedal)

D||---------------------------------------------||
A||---------------------------------------------||
F||--9-9-9--11-11-11---12--12--12---14--14--14--||
C||--x-x-x---x--x--x----x---x---x----x---x---x--||
G||--7-7-7---9--9--9---10--10--10---12--12--12--||
C||---------------------------------------------||

There You Go, Please Rate & Comment

Tap to rate this tab
# A B C D E F G H I J K L M N O P Q R S T U V W X Y Z