Song name
# A B C D E F G H I J K L M N O P Q R S T U V W X Y Z

Incubus - The Warmth tab

This song deserves to be tabbed

(/)  (\) = slides
^ = bend
~ = vibrato

This is the intro, but it is played throughout the song in diff. places
e----------------------------21---------------------------------------
b---19^21----17--17---------------------------------------------------
g--------------19--19-17---16--16-------------------------------------
d---------------------------------------------------------------------
a---------------------------------------------------------------------
e---------------------------------------------------------------------

these are the chords that are played just after that
e--12---12-12--12-12--12-12---------------------------------------------
b--12---12-12--12-12--12-12--13-13--13----------------------------------
g----------------------------12-12--12--12--12-12--12-12--12-12\9-9--9-
d---------------------------------------12--12-12--12-12--12-12\9-9--9-
a-----------------------------------------------------------------------
e-----------------------------------------------------------------------

this riff i guess could be called a solo i guess... it took me forever to
get this note for note... if it is wrong... too bad... i am pretty friggin 
sure it is right
e-------------------------------------------------  -----------------------
b-------------------------------------------------  -----------------------
g-4-2-4-2-4-2-4-4-2-4-2-4-4-2-4-2-4-2-4-2-4-2-4-4-  2-4-2-4-4-2-4-2--------
d-------------------------------------------------  -----------------------
a-------------------------------------------------  -----------------------
e-------------------------------------------------  -----------------------

this is the second ending to that
e----------------
b----------------
g-2-4-4-2-4-5-4-2
d----------------
a----------------
e----------------

the power chords
e--------------------------------------
b--------------------------------------
g--------------------------------------
d---------------7----------------------
a-9------5------5------2---------------
e-7------3------3------0---------------

the rythyms are easy to figure out... HAVE FUN!
Tap to rate this tab
# A B C D E F G H I J K L M N O P Q R S T U V W X Y Z