Song name
# A B C D E F G H I J K L M N O P Q R S T U V W X Y Z

Incubus - Drive tab

Incubus - Drive 
               (Tabbed by Rich Bagnall - rich@guitaretab.com)

Standard Tuning (E A D G B E)

Intro/Verse/chorus
-----0-0----------------------------------------------------------------------
-----8-8-x---7-7-----5-5-x---5-5-5--------------------------------------------
-----0-0-x---7-7-----4-4-x---0-0-0--------------------------------------------
-----9-9-x---5-5---5-5-5-x---5-5-5--------------------------------------------
---7-7-7---7-7-7-3-----------3-3-3--------------------------------------------
-0-------------------------5-5-5-5--------------------------------------------
                                                                              
Prechorus
-----------------0-0---0-0-0-0---0-0-0-0---0-0--------------------------------
-----5-5-----5-5-2-2---2-2-2-2p0-0-0-0-2p0-0-0--------------------------------
-----4-4-----4-4-0-0---0-0-0-0---0-0-0-0---0-0--------------------------------
---5-5-5-----5-5-2-2---2-2-2-2---------2--------------------------------------
-3---3-3-3-3-----0-0-0-0-0-0-0---------0--------------------------------------
------------------------------------------------------------------------------
                                                                              
Guitar Solo
-0---0-0-0---7-5\3-3-3-5-----------------------3-5-5/7-7-5-10\7-7-7-5-7-------
-3/5-5-5-5-7-------------3-5-3/5\3-5-3/5-5-3/5--------------------------------
------------------------------------------------------------------------------
------------------------------------------------------------------------------
------------------------------------------------------------------------------
------------------------------------------------------------------------------
                                                                              

-7\5-------------0-5-3h5-5-3-3------------------------------------------------
-5\3-3-5-3h5-3-0-3-------------5-3h5-3----------------------------------------
-----------------4---------------------4-2-2/4--------------------------------
------------------------------------------------------------------------------
------------------------------------------------------------------------------
------------------------------------------------------------------------------
Tap to rate this tab
# A B C D E F G H I J K L M N O P Q R S T U V W X Y Z