Song name
# A B C D E F G H I J K L M N O P Q R S T U V W X Y Z

Incubus - Drive tab

All the tabs of Drive I've seen have been a little bit off (or way off).
Here's how I play it...

This is the main part:

e|-----0-0-0----0------0-0-0----0-------------
b|-----8-8-8----7------5-5-5----2-------------
g|-----0-0-0----0------0-0-0----0-------------
d|-----9-9-9----7----5-5-5-5----2-------------
a|---7--------5----3----------0---------------
E|-0------------------------------------------

"It's driven me before..."

e|----0-0-0-0---0--0-0-0-0----
b|----5-5-5-5---2--2-2-2-2----
g|----0-0-0-0---0--0-0-0-0----            play this part 4 times,
d|----5-5-5-5---2--2-2-2-2----     let the second chord ring the 4th time
a|--3-----------0--0-0-0-0----
E|----------------------------  
                                 

SOLO

e|------------7--5--3---5---------------------
b|-5-5-5-5--5-------------3-5-5-3---5-5---5-5-
g|--------------------------------------------
d|--------------------------------------------
a|--------------------------------------------
E|--------------------------------------------

e|-3-5-5/7-7-5-10-7-5-7---------------5--5p3-3---------------------
b|----------------------5\3-3-5-5-3------------3/5-5-3-------------
g|-----------------------------------------------------4-2-2h4-4---
d|-----------------------------------------------------------------
a|-----------------------------------------------------------------
E|-----------------------------------------------------------------

OUTRO

e|----0-0-0-0---0-------------
b|----5-5-5-5---2-------------
g|----0-0-0-0---0-------------
d|----5-5-5-5---2-------------
a|--3-----------0-------------
E|----------------------------

Any questions/comments, send 'em to spaceboy58@hotmail.com
Tap to rate this tab
# A B C D E F G H I J K L M N O P Q R S T U V W X Y Z