Song name
# A B C D E F G H I J K L M N O P Q R S T U V W X Y Z

Incubus - I Miss You Acoustic tab

this was not done by me but it's a pretty good version of the song here's where i got it from
http://guitarists.net/tab/view.php?id=16789

Date: Tue, 5 Jun 2001 21:35:25 -0400
From: "JD Sugalski"
Subject: i/incubus/i_miss_you_acoustic.tab

Author: INCUBUS
Album: MAKE YOURSELF
Song: “I Miss You” (derived from the acoustic version)
Tabbed exclusively by:  J.D. Sugalski

Tuning: drop D (D A d g b e)

Although I tabbed it from the acoustic version, it’s the same way to
play other version.  The most important thing is to get the rhythm
down.  All of the notes are playing at equal durations, except for
the harmonics.  Listen to the recording to get that correctly.  This
is a really good one to play acoustic mainly because it’s so
emotional.  Hope this helps!

Intro/Verse:
||--------------------------------------------------------|
||--------------------------------------------------------|
||--------------------------------(7)---------------------|
||--------0-----------------0----------(7)----------------|
||-----4-----4-----4-----4-----4--------------------------|
||--0-----------0-----5-----------------------------------|

·This riff basically repeats over and over until the
prechorus/chorus.
() denote harmonics

Prechorus/Chorus:
“ You do something to me” part of the song
-----------------------------------------------------0---0----0----|
----------------0------------------------------------5---5----5----|
--------------------0----------------------------------------------|
-----------2------------2-----------0--------0----0----------------|
-------4------------------------4--------4--------0----------------|
-----------------------------5--------------------0----------------|

“That I can’t explain.”
-----------------------------------------------------0---0----0----|
----------------0------------------------------------3---3----3----|
--------------------0--------------------------------2---2----2----|
--------------2------------2-----------0------0---0----------------|
-------4------------------------4--------4--------0----------------|
-----------------------------5--------------------0----------------|

"So would I be out of line?"
-------------------------------------------------------------------|
-------------0-----------------------------------------------------|
----------------0--------------------------------------------------|
----------2------------2-----------0--------0----0----7------------|
-------4------------------------4--------4-------0----7------------|
------------------------------5------------------0----7------------|

"If I said...I miss you"
-------------------------------------------------------------------|
-------------------------------------------------------------------|
-------------------------------------------------------------------|
------------0-------0----------0----0-------0-----0-----0----------|
------------5-------5----------4----4-------5-----5-----5----------|
------------5-------5----------5----5-------5-----5-----5----------|
(then right back into main riff)
Tap to rate this tab
# A B C D E F G H I J K L M N O P Q R S T U V W X Y Z