Guitaretab - guitar tabs
Song name
# A B C D E F G H I J K L M N O P Q R S T U V W X Y Z

Inspection 12 - Sweet Sixteen tab

Bass Intro
G------7-----7-----7-----7-----7-----7-----7-----7-----7-----7-----7----|
D---0-----0-----0-----0-----0-----0-----4-----4-----5-----5-----5-------|
A-----------------------------------------------------------------------|
E-----------------------------------------------------------------------|

G------7-----7-----7-----7-----7-----7-----7-----7-----7-----7-----7----|
D---5-----5-----5-----7-----7-----0-----0-----0-----0-----0-----4-------|
A-----------------------------------------------------------------------|
E-----------------------------------------------------------------------|

G------7-----7-----9-----9-----9-----9-----11-----11-----11-------------|
D---5-----6-----7-----7-----7-----7-----8------8------8-----------------|
A-----------------------------------------------------------------------|
E-----------------------------------------------------------------------|

G------11-----11-----11-----11-----11-----11-----11-----11--------------|
D---8------9------9------9------9------9------9------9---------9--7-----|
A-----------------------------------------------------------------------|
E-----------------------------------------------------------------------|

G------7-----7-----7-----7-----7-----7-----7-----------7-----7-----7----|
D---5-----5-----5-----5-----5-----5-----5-----5--4----------------------|
A---------------------------------------------------7-----7-----7-------|
E-----------------------------------------------------------------------|

G------7-----7-----7-----7-----------7-----7-----7-----7-----7-----7----|
D------------------------------4--5-----5-----7-----7-----5-----5-------|
A---7-----7-----7-----7-----7-------------------------------------------|
E-----------------------------------------------------------------------|
[ Tab from: http://www.guitaretab.com/i/inspection-12/153610.html ]
G-----------------------------------------------------------------------|
D---0--0--0--0----------------------------------------------------------|
A---------------0--0--0--2--4-------------------------------------------|
E-----------------------------------------------------------------------|


    ALL VERSES (bassline follows chords)
E-----------------------------------------------------------------------|
B-----------------------------------------------------------------------|
G---7--7--7--7--7--7--7--7--4--4--4--4--4--4--4--4--7--7--7--7--7--7----|
D---7--7--7--7--7--7--7--7--5--5--5--5--5--5--5--5--7--7--7--7--7--7----|
A---5--5--5--5--5--5--5--5--5--5--5--5--5--5--5--5--5--5--5--5--5--5----|
E---------------------------3--3--3--3--3--3--3--3----------------------|

E-----------------------------------------------------------------------|
B---------------------------------------------3--3--3--3--3--3--3--3----|
G---7--7--------------------------------------4--4--4--4--4--4--4--4----|
D---7--7--7--7--7--7--8--8--8--8--------------4--4--4--4--4--4--4--4----|
A---5--5--7--7--7--7--9--9--9--9--------------2--2--2--2--2--2--2--2----|
E---------5--5--5--5--6--6--6--6----------------------------------------|

E-----------------------------------------------------------------------|
B-----------------------------------------------------------------------|
G---4--4--4--4--4--4--4--4----------------------------------------------|
D---5--5--5--5--5--5--5--5--------2--2--2--2--2--2--2--2--5--5--7--7----|
A---5--5--5--5--5--5--5--5--------2--2--2--2--2--2--2--2--5--5--7--7----|
E---3--3--3--3--3--3--3--3--------0--0--0--0--0--0--0--0--3--3--5--5----|

E-----------------------------------------------------------------------|
B-----------------------------------------------------------------------|
G---------7--7--7--7----------------------------------------------------|
D---5--5--7--7--7--7--2--2--2--2----------------------------------------|
A---5--5--5--5--5--5--0--0--0--0----------------------------------------|
E---3--3----------------------------------------------------------------|

(The whole song is the same 6 chords; some muted, some not. Pretty easy.)
Related for Sweet Sixteen tab
Advertisement will be closed in 10 seconds