Song name
# A B C D E F G H I J K L M N O P Q R S T U V W X Y Z

Jack Johnson - You And Your Heart tab

"You and Your Heart"
All copyrights go to Jack Johnson. This is my first tab, but I'm pretty sure this is 
feel free to e-mail me for any questions or to correct me. themaxj123@gmail.com  Enjoy!!

Introduction:
(I'm providing the notes and can't really tab out the rhythm, so it's up to you to 
out the exact rhythm, sorry!)
E------------------------------------------------------------------------|
B------------------------------------------------------------------------|
G-6-6-6--6-6-6-4-------------------4-------------------------------------|
D----------------7--5-5-5--5-5-5-7---------------4-5-4-------------4-5-4-|
A-------------------------------------5-5-5--5-5--------5-5-5--5-5-------|
E------------------------------------------------------------------------|

Verse:
Same as the introduction!

Chorus:
G   3 5 5 4 3 3
A   5 7 7 6 5 5
D   X 5 7 7 7 5
G   3 5 5 4 3 3

At the end of the chorus leading into the final guitar rift you play:
G
A
D
G
Then this leads into the ending rift:
E-------------|
B-------------|
G-------------|
D-4-4-4-5-5-5-|
A-------------|
E-------------|

Ending guitar rift:
E----------------------                  --------------------------------|
B----------------------                  --------------------------------|
G----6----------------- Play this 4x then--------------------------------|
D-7-7-7-------4-5-------                  --4-4-4-4-(Play this note 16x)-|
A------5-5-5-5----------                  -------------------------------|
E----------------------                  --------------------------------|

Repeat this section until the end, and I think he only repeats the note on fret 4 string 
12x at the end. Anyway, hope you get the idea, I'm sure you can figure out the exact 
of times he plays this rift if I got it wrong.

Hope you enjoyed!
Tap to rate this tab
# A B C D E F G H I J K L M N O P Q R S T U V W X Y Z