Song name
# A B C D E F G H I J K L M N O P Q R S T U V W X Y Z

Jack Johnson - You And Your Heart chords

Highlighted       Show chord diagrams
The Riff:
e-----------------------------------------------------------|
B-----------------------------------------------------------|
G-----------------------------------------------------------|
D---10--10--10--10-10-10-10-8---------------------------8---|
A------------------------------11--9--9--9--9-9-9-9-11------|
E-----------------------------------------------------------|

e-----------------------------------------------------------|
B-----------------------------------------------------------|
G-----------------------------------------------------------|
D-----------------------------------------------------------|
A----------------8--9--8------------------8--9--8-----------|
E-9--9--9--9-9-9-----------9--9--9--9-9-9-------------------|


CHORDS:

G#                              F#                          C#
Watch you when you say what you are and when you blame everyone,
C#
You broken king
G#                                      F#                            C#
Watch you change the frame or watch you when you take your aim at the sum,
C#
Of everything

CHORUS

      F#           G#              C#             F#
Cause you and your heart shouldn't feel so far apart
     F  F#              G#                  C#       
                F#  G
You can choose what you take why you gotta break and make it feel so hard

RIFF x2

VERSE (same as first verse)

You lay there in the street
Like broken glass reflecting pieces of the sun
But you're not the flame
You got the people passing by
Because you know what you don't like
It's just so easy, it's just so easy

CHORUS X2
      F#           G#              C#             F#
Cause you and your heart shouldn't feel so far apart
     F  F#              G#                  C#       
                F#  G
You can choose what you take why you gotta break and make it feel so hard

e------------------------------|
B------------------------------|
G------------------------------|      (played by bass and a guitar throughout
D---------10-------------------|       whole ending)
A-11--11------11----------8--9-|
E----------------9--9-9-9------|


D#

                G#            C#
You just (?) so many lines in the sand
          G#            C#
Lost the fingernails on your hands
           G%             C#
How you're gonna scratch any backs?
       G#                  C#               D#
Better hope that time will take our lines away
D#
Take all our lines and

G#         C#       G#       C#
Hope that time will take our lines and
G#         C#       G#       C#     D#
Hope that time will take our lines away
D#
Take all our lines away

G#
Tap to rate this tab
 
# A B C D E F G H I J K L M N O P Q R S T U V W X Y Z