Song name
# A B C D E F G H I J K L M N O P Q R S T U V W X Y Z

Jack Johnson - You And Your Heart chords

Highlighted       Show chord diagrams
This tab is 100% correct from what I have done

Chords

E------------------------------------------------------------------------|
B------------------------------------------------------------------------|
G----------6----------4---------x---------5------------------------------|
D----------7----------5---------4---------6------------------------------|
A----------7----------5---------5---------6------------------------------|
E----------5----------3---------5---------4------------------------------|
           A chord    G chord   D chord   G# chord

These are the chords you will be using. If you play them like you would bar chords they 
very simple to play just mute or don't strum the bottom 2 strings. You can play the 
the standard way buts its a bit harder and doesn't sound as nice.

Intro

E------------------------------------------------------------------------|
B------------------------------------------------------------------------|
G-6-6-6--6-6-6-4-------------------4-------------------------------------|
D----------------7--5-5-5--5-5-5-7---------------4-5-4-------------4-5-4-|
A-------------------------------------5-5-5--5-5--------5-5-5--5-5-------|
E------------------------------------------------------------------------|

Then progress to heavier chords

A                               G                           D
Watch you when you say what you are and when you blame everyone,
    G      D        G      D
You broken king
A                                       G                             D
Watch you change the frame or watch you when you take your aim at the sum,
   G    D           G       D
Of everything

CHORUS
      G            A               D       A   G
Cause you and your heart shouldn't feel so far apart
        G               A                  D                 A      G
You can choose what you take why you gotta break and make it feel so hard

At the end of the chorus Slide from G to G# to A

Intro riff x2

Verse 2! (same as first verse)

A                                G                                     D
You lay there in the street Like broken glass reflecting pieces of the sun
           G       D       G    D
But you're not the flame
A                               G                             D
You got the people passing by Because you know what you don't like
     G       D          G       D
It's just so easy, it's just so easy

Play Chorus twice!

then play riff x2

I haven't finished the song but the last part consist of all the same chords so there ya 
piece it together cause this tab is correct for what I got.

You draw so many lines in the sand
Lost the fingernails on your hands
How you're gonna scratch any backs?
Better hope that time will take our lines away
Take all our lines and

Hope that time will take our lines and
Hope that time will take our lines away
Take all our lines away
Tap to rate this tab
# A B C D E F G H I J K L M N O P Q R S T U V W X Y Z