Song name
# A B C D E F G H I J K L M N O P Q R S T U V W X Y Z

Jack Johnson - You And Your Heart tab

                         Artist: Jack Johnson
                        Song: You And Your Heart
                        Album: To The Sea (2010)
                        
                        tabbed by: enjoi-skate


                          Tuning: Standard

                          CAPO ON 2nd FRET

Intro:
You can play the intro in many ways which are basically the same.
I think this is the best one because your fingers are nearest by the chords.

3x
         G                 F                   C
E--------------------------------------------------------------------------|
B--------------------------------------------------------------------------|
G---4-4-4-4-4-4-4--2--------------------2----------------------------------|
D---------------------5-3-3-3-3-3-3-3-5-----------------2-3-2--------------|
A-----------------------------------------3-3-3-3-3-3-3--------------------|
E--------------------------------------------------------------------------|


        C
E---------------------------------------------------------------------------|
B---------------------------------------------------------------------------|
G---------------------------------------------------------------------------|
D----------------2-3-2------------------------------------------------------|
A---3-3-3-3-3-3-------------------------------------------------------------|
E---------------------------------------------------------------------------|


 G
Watch you when you say
          F
What you are and when you blame
     C               C
Everyone, You broken king
G
Watch you change the frame or
          F
Watch you when you take your aim
       C           C
At the sum of everything


Chorus
      F             G
Cause you and your heart
           C           F
Shouldn't feel so far apart
          F              G
You can choose what you take
                C                         F      F#
Why you gotta break and make it feel so hard


Play the Intro 3 times. Chords are: G F C C


      G
You lay there in the street
              F                             C
Like broken glass reflecting pieces of the sun
                     C
But you're not the flame
     G
You got the people passing by
              F
Because you know what you don't like
           C                  C
It's just so easy, it's just so easy


Chorus
     F             G
But you and your heart
            C          F
Shouldn't feel so far apart
          F               G
You can choose what you take
                C                        F
Why you gotta break and make it feel so hard
        F             G
Oh and you and your heart
            C           F
Shouldn't feel so far apart
           F             G
You can choose what you take
                C                        F     F#
Why you gotta break and make it feel so hard


Bridge:


       G         C
E-------------------------------------|
B-------------------------------------|
G---------4---------------------------|  4x
D----5--5----5-----------2--3---------|
A---------------3--3--3---------------|
E-------------------------------------|

             D

             G             C
You draw so many lines in the sand
             G            C
Lost the fingernails on your hands
             G            C
How you're gonna scratch any backs?
         G                   C             D
Better hope that time will take our lines away
 D
Take all our lines and
 G                    C
Hope that time will take our lines and
 G                    C             D
Hope that time will take our lines away
 D                    G
Take all our lines away


Ending on G .


I think this might be correct.

enjoy playing & please rate :)
Tap to rate this tab
 
# A B C D E F G H I J K L M N O P Q R S T U V W X Y Z