Song name
# A B C D E F G H I J K L M N O P Q R S T U V W X Y Z

Jack Johnson - My Little Girl tab

ARTIST: Jack Johnson
ALBUM: In the End
SONG: My Little Girl

TUNING: Standard / No Capo

This is my very first tab. I did it by ear so, it may not sound like the original song,
I think it sounds very similar to the real song.

Of course, the actual song is played with more that one guitar or has loops going on in
back, so this tab is for those people who are a "one man band" and all they have is an
guitar.

The beginning of this part is played with an electric guitar with some sort of reverb
to it. Then, it kinda blends with an acoustic guitar when it goes into the verse part.
the verse part has some effects but not reverb. When you get into the chorus, it's 
much the same thing as the intro. There really is only three easy parts to this song:
Verse, and End Solo.

- INTRO -
E|-------3--------3~7------0-7----0-5-----0-3------------|
A|--------------------------------------7----------------|
D|-------5----------9----------9------7-7------5---------|
G|-------5----------7----------7------6-6--------4---4---|
B|-------3----------7----------7------5-5----------3-----|
e|--------------------------------------0----------------|

E|-------0-7----0-5-----0-3------------|
A|--------------------7----------------|
D|-----------9------7-7------5---------|
G|-----------7------6-6--------4---4---|
B|-----------7------5-5----------3-----|
e|--------------------0----------------|

- VERSE -
E|---------7---------10------------0-5-----------7-------10-----0-5-----0-5----------|
A|------7--------9---------5--0------------------------------------------------------|
D|-------------------12----7--7---------7----7---9---9---12----------5------7--------|
G|-------------------12----7--7---------6--------7-------11----------7------6--------|
B|-------------------11----7--7---------5--------7-------10----------7------5--------|
e|-----------------------------------------------------------------------------------|

E|---------------7-------10-----0-5----0-5----------|
A|--------------------------------------------------|
D|------7----7---9---9---12---------5------7--------|
G|------6--------7-------11---------7------6--------|
B|------5--------7-------10---------7------5--------|
e|--------------------------------------------------|

- CHORUS -
E|------0-3--3-----0-7--7-----0-7----0-5-----0-3------------|
A|-----------------------------------------7----------------|
D|--------5--5-------9--9---------9------7-7------5---------|
G|--------5--5-------7--7---------7------6-6--------4---4---|
B|--------4--4-------7--7---------7------5-5----------3-----|
e|-----------------------------------------0----------------|

E|----------0-7----0-5-----0-3--------------|
A|-----------------------7------------------|
D|--------------9------7-7------5-------5---|
G|--------------7------6-6--------4-----4---|
B|--------------7------5-5----------3---3---|
e|-----------------------0------------------|

- VERSE -
E|---------7---------10------------0-5-----------7-------10-----0-5-----0-5----------|
A|------7--------9---------5--0------------------------------------------------------|
D|-------------------12----7--7---------7----7---9---9---12----------5------7--------|
G|-------------------11----7--7---------6--------7-------11----------7------6--------|
B|-------------------10----7--7---------5--------7-------10----------7------5--------|
e|-----------------------------------------------------------------------------------|

E|---------------7-------10-----0-5----0-5----------|
A|--------------------------------------------------|
D|------7----7---9---9---12---------5------7--------|
G|------6--------7-------12---------7------6--------|
B|------5--------7-------11---------7------5--------|
e|--------------------------------------------------|

- PRE-CHORUS -
E|-------3--3-----7--7-----10--10-----5--5----------|
A|--------------------------------------------------|
D|-------5--5-----9--9-----12--12-----7--7----------|
G|-------5--5-----7--7-----11--11-----6--6----------|
B|-------4--4-----7--7-----10--10-----5--5----------|
e|--------------------------------------------------|

- CHORUS -
E|------0-3--3-----0-7--7-----0-7----0-5-----0-3------------|
A|-----------------------------------------7----------------|
D|--------5--5-------9--9---------9------7-7------5---------|
G|--------5--5-------7--7---------7------6-6--------4---4---|
B|--------4--4-------7--7---------7------5-5----------3-----|
e|-----------------------------------------0----------------|

E|----------0-7----0-5-----0-3--------------|
A|-----------------------7------------------|
D|--------------9------7-7------5-------5---|
G|--------------7------6-6--------4-----4---|
B|--------------7------5-5----------3---3---|
e|-----------------------0------------------|

Then there is the End Solo, which I have not done yet.

Please, feel free to comment and put your input into this. Like I said, this is my first
and can take all the feedback I can get so I can do better next time.
Tap to rate this tab
# A B C D E F G H I J K L M N O P Q R S T U V W X Y Z