Guitaretab - guitar tabs
Song name
# A B C D E F G H I J K L M N O P Q R S T U V W X Y Z

James Horner - For The Love Of A Princess tab

Intro:
Am
e||------------------------------|x2----------------------------------|
 ||---------------------------1--|------------------------------------|
 ||----------2-------4-----------|-----------2--------4---------------|
 ||------2------2--------2-------|-------2--------2-------2-----------|
 ||--0---------------------------|--0---------------------------------|
E||------------------------------|------------------------------------|

Theme:
||------------------8-7---8-7--5---3-3-/5-0--------------------------|
||-----8---8/10~-----------------------------------------------------|
||-9-----------------------------------------------------------------|
||-------------------------------------------------------------------|
||-------------------------------------------------------------------|
||-------------------------------------------------------------------|
[ Tab from: http://www.guitaretab.com/j/james-horner/182327.html ]
||------------------8-7---8-7--5---3-3--/5---------------------------|
||-----8---8/10~-----------------------------------------------------|
||-9-----------------------------------------------------------------|
||-------------------------------------------------------------------|
||-------------------------------------------------------------------|
||-------------------------------------------------------------------|

||-------------------------------------------------------------------|
||-----8----10--10---8-----------------------------------------------|
||-9-------------------7----5--7--10--9---7---5----4----0---2~---0---|
||-------------------------------------------------------------------|
||-------------------------------------------------------------------|
||-------------------------------------------------------------------|

||-2~----------------------------------------------------------------|
||-------------------------------------------------------------------|
||-------------------------------------------------------------------|
||-------------------------------------------------------------------|
||-------------------------------------------------------------------|
||-------------------------------------------------------------------|
Related for For The Love Of A Princess tab