Song name
# A B C D E F G H I J K L M N O P Q R S T U V W X Y Z

James Horner - Titanic tab



E--------------------------------------------------------------------------|
B--------10--12~----12-13-12--10------10--15~---12--10--8~--5~--3~---------|
G----12---------------------------12---------------------------------------|
D--------------------------------------------------------------------------|
A--------------------------------------------------------------------------|
E-0------------------------------------------------------------------------|

E----------------------------------------------------------------------------|
B---------10--12~--12-13-12--10------10--15~--12-15--17~--15-12-15-----------|
G-----12-------------------------12------------------------------------------|
D----------------------------------------------------------------------------|
A----------------------------------------------------------------------------|
E-0--------------------------------------------------------------------------|

E----------------------------------------------------------------------------|
B--12-10~----17--19-20~--19-15--12~--12-15--17~--15-12-15-12-10~-------------|
G----------------------------------------------------------------------------|
D----------------------------------------------------------------------------|
A----------------------------------------------------------------------------|
E---------0------------------------------------------------------------------|

E---------------------------------------|
B--12--10-8-10-12-10-8--5~--5h7p5-3~----|
G---------------------------------------|
D---------------------------------------|
A---------------------------------------|
E------------------------------------0--|

JUST R
Tap to rate this tab
# A B C D E F G H I J K L M N O P Q R S T U V W X Y Z