Song name
# A B C D E F G H I J K L M N O P Q R S T U V W X Y Z

Janes Addiction - Then She Did tab

#


From 010853061679@msn.com Sun Apr 27 11:06:45 1997
Date: Mon, 21 Apr 97 23:53:40 UT
From: HERBERT BLACKBURN <010853061679@msn.com>
To: guitar@olga.net
Cc: 010853061679@msn.com
Subject: Jane's Addiction: guitar tab of Then She Did....

 Artist:Jane's Addiction
 Album:Ritual de lo Habitual
 Song:Then She Did
 
      Here's what I came up with for this song:
                                        
     intro:    

e-----------------------------------------------------------------------------
--------------------------------                                               
                         B------  9 9 9 9 9-------7-/-5-------  9 9 9 9 
9--------7-/-5--     9--9 9 9 9 9 -11 11 11                                    
                                           G------  8 8 8 8 
8-------6-/-4-------  8 8 8 8 8--------6-/-4------ 8--8 8 8 8 8 -10 10 10 
D------- 9 9 9 9 9-------7-/-5-------  9 9 9 9 9--------7-/-5-------9--9 9 9 9 
9 - 11 11 11
A---7-- 7 7 7 7 7---5--5-/-3------7  7 7 7 7 7----5--5-/-3--7---7--7 7 7 7 
7---------------
E-----------------------------------------------------------------------------
-------------------------------- 

e-----------------------------------------------------------------------------
--------------------------------B--7-/-5---9-7-9-11---------------------------
-----------------------------------------------------------                    
                                                                            
G--6-/-6---8-6-8-10 -----------------------------(Repeat several 
times)-----------------------                                                  
                                                             
D--7-/-5---9-7-9-11-----------------------------------------------------------
--------------------------
A--5-/-3---7-5-7--9-----------------------------------------------------------
---------------------------
E-----------------------------------------------------------------------------
--------------------------------

 then for most of the song it's this:

e----------------------------------------------
B-----7-/-9----7-/-9-7----7-/-9-7-6-7-5
G-----6-/-8----6-/-8-6----6-/-8-6-5-6-4                                        
                                                                     
D-----7-/-9----7-/-9-7----7-/-9-7-6-7-5
A-----5-/-7----5-/-7-5----5-/-7-5-4-5-3
E----------------------------------------------

      That's all I've got for now. I'm looking for these tabs:Idiots Rule,
      Standing in the Shower,No One's Leaving, & Trip Away. Questions 
      or comments? Here's my E-Mail:   010853061679@msn.com


                                                          -Jonathan Blackburn
Tap to rate this tab
# A B C D E F G H I J K L M N O P Q R S T U V W X Y Z