Song name
# A B C D E F G H I J K L M N O P Q R S T U V W X Y Z

Jean Sibelius - Finlandia tab

Song:Finlandia Hymni
Composer:Jean Sibelius
Tabber:Da Jamm

^=Let ring

Play this with the guitar

-----------------------------|
7-5-7-8^-7-5-7-3-5-5-7^------|
-----------------------------|
-----------------------------|
-----------------------------|
-----------------------------|

-----------------------------|
7-5-7-8^-7-5-7-3-5-7^--------|
-----------------------------|
-----------------------------|
-----------------------------|
-----------------------------|

--------------------------------------------------------------|
10-10-10-12^-7-7-10-10-5-5-8^-8-7-5-7-3-5-7-7^----------------|
--------------------------------------------------------------|
--------------------------------------------------------------|
--------------------------------------------------------------|
--------------------------------------------------------------|

-----------------------------------------------|
10-10-10-12^-7-7-10-10-5-5-8^-8-7-5-7-3-5-3-3--|
-----------------------------------------------|
-----------------------------------------------|
-----------------------------------------------|
-----------------------------------------------|

Play this with bass!

-----------------------------|
-----------------------------|
-----------------------------|
2-2-3-2-2---2----------------|
-5-----5-5-5-----------------|

-----------------------------|
-----------------------------|
2-2-3-2-2-2------------------|
-5-----5-5-------------------|

Repeat this 2 times and your done!The bass is there to make it sound more full and its 
worst tab ever but it sound good when played right.Play the whole song clean and when you 
the strings ring try to bend them a little,thats sound really good!
Tap to rate this tab
# A B C D E F G H I J K L M N O P Q R S T U V W X Y Z