Song name
# A B C D E F G H I J K L M N O P Q R S T U V W X Y Z

Jean Sibelius - Finlandia Hymn tab

Finlandia Hymn semi-chorded Tab
Written by Jean Sibelius
Adapted and tabbed by Fenrisulven (aka: Fenrir)

-Do not reproduce in any way without credit given to Fenrisulven (myself).

-Note: The outro, which is merely theatrical, and perhaps one or two other aspects have 
added merely to help isolate and adapt this piece for guitar. Now, enjoy. :)

------------------------------------------------

Ax2
Bx1
Cx1
Bx1
Dx1 (+ opt. if wanted)

(A)
|-2--0--2--3----2--0--2--------0--2-2------|
|-3--2--3--3----3--2--3--3--3--2--3-3------|
|-2--0--2--4----2--0--2--2--2--0--2-2------|
|---------------------------0--0-----------|
|------------------------------------------|
|------------------------------------------|

(B)
|-5--5--5--7----2--2--5--5---0-0--3--------|
|-3--2--0--8----3--3--7--7---2-2--5--------|
|----------7----2--2--5--5---0-0--6--------|
|------------------------------------------|
|------------------------------------------|
|------------------------------------------|

(C)
|-3--2--0--2-------0---2--2------|
|-3--3--2--3--3-3--2---2--2------|
|-4--2--0--2--2-2--0---3--3------|
|-------------0-0----------------|
|--------------------------------|
|--------------------------------|

(D)
|-3--2--0--2-------0---2---2---0-----------:
|-3--3--2--3--3-3--2---3---3---2-----3-----:
|-4--2--0--2--2-2--0---2---2---0-----2-----:
|-------------0-0--------------------0-----:
|------------------------------------------:
|------------------------------------------:

(Optional outro -> flow in to from last note)
:----------------|
:--(3)----(3)----|
:--(0)-----------|
:---------(4)----|
:----------------|
:----------------|
Tap to rate this tab
 
# A B C D E F G H I J K L M N O P Q R S T U V W X Y Z