Song name
# A B C D E F G H I J K L M N O P Q R S T U V W X Y Z

Jeff Williams - Red Like Roses tab

-------------------------------------------------------------------------------
                        Red Like Roses Solo Sections
-------------------------------------------------------------------------------
Tabbed by: Nick Gunderman
E-mail: nickrgunderman@gmail.com

Tuning: Standard

e|--------------------------------------------------------|
B|--10-10-13-11-10---------/10----------------------------|
G|-----------------12-10-12-----12------------------------|
D|--------------------------------------------------------|
A|--------------------------------------------------------|
E|--------------------------------------------------------|

e|--------------------------------------------------------|
B|---------------10-13-11-10------------------------------|
G|-------9/10-12-------------12-10-10h12-9h10-9-----------|
D|-10-12----------------------------------------12--------|
A|--------------------------------------------------------|
E|--------------------------------------------------------|

e|--------------------------------------------------------|
B|----10-13-11-10h11p10-----------------------------------|
G|----------------------12-10-9-10-9----9-----------------|
D|-12--------------------------------10---10-10-12--------|
A|--------------------------------------------------------|
E|--------------------------------------------------------|

e|--------------------------------------------------------|
B|---10-10-13-11-10---------------------------------------|
G|-10---------------12-10h12-9h10-9-----------------------|
D|----------------------------------12-10-12--------------|
A|--------------------------------------------------------|
E|--------------------------------------------------------|

e|--------------------------------------------------------|
B|----------10-13-11-10-----------------------------------|
G|-------10-------------12-10\9-9-9h10p9------------------|
D|-10-12---------------------------------12-10-12---------|
A|--------------------------------------------------------|
E|--------------------------------------------------------|

e|---------------------------------------------------------|
B|-10-10-13-11-10---/10-10-10-10-10-10-10-10-10------------|
G|----------------10---------------------------------------|
D|---------------------------------------------------------|
A|---------------------------------------------------------|
E|---------------------------------------------------------|

e|-10-10-10-10-10------------------------------------------|
B|----------------10-10-10-10------------------------------|
G|----------------------------12-10-12---------------------|
D|-------------------------------------12-10---------------|
A|---------------------------------------------------------|
E|---------------------------------------------------------|

e|---------------------------------------------------------|
B|---------------------------------------------------------|
G|-9h10p9--------------------------------------------------|
D|--------12-10--------------------------------------------|
A|--------------12-10-12-10-8------------------------------|
E|----------------------------10-8-10-10-10-10-10----------|

break for drum solo

e|---------------------------------------10-10-------------|
B|-------------10------------------------------10-11-10----|
G|----9-10-------12-10-9-10----9-10-------------------12---|
D|-12------12---------------12------12---------------------|
A|---------------------------------------------------------|
E|---------------------------------------------------------|

e|---------------------------------------------------------|
B|-------------10------------------------------------------|
G|----9-10-------12-10-9-10--------------------------------|
D|-12------12----------------------------------------------|
A|---------------------------------------------------------|
E|---------------------------------------------------------|

e|---------------------------------------------------------|
B|----11-10----------10------------------------------------|
G|-12-------12-10-12----12-10-12-10-9----------------------|
D|---------------------------------------------------------|
A|---------------------------------------------------------|
E|---------------------------------------------------------|

e|-------------------------------------10-10---------------|
B|-------------10----------------------------10-11-10------|
G|----9-10-------12-10-9-10--9-10---------------------12---|
D|-12------12-----------------------12---------------------|
A|---------------------------------------------------------|
E|---------------------------------------------------------|

e|---------------------------------------------------------|
B|-------------10------------------------------------------|
G|----9-10-------12-10-9-10--------------------------------|
D|-12------12----------------------------------------------|
A|---------------------------------------------------------|
E|---------------------------------------------------------|


e|---------------------------------------------------------|
B|----11-10----------10------------------------------------|
G|-12-------12-10-12----12-10-12-10-9----------------------|
D|------------------------------------12-------------------|
A|---------------------------------------------------------|
E|---------------------------------------------------------|


************************************

| /   slide up
| \   slide down
| h   hammer-on

************************************
Tap to rate this tab
 
# A B C D E F G H I J K L M N O P Q R S T U V W X Y Z