Song name
# A B C D E F G H I J K L M N O P Q R S T U V W X Y Z

Jeff Williams - Red Like Roses tab

I think I was pretty accurate.
This is only the intro to the song.
If I find some time I will finish the rest of the song.

Listen to the song to get the timing because it changes throughout the intro.

---------------------------------------------------------------------

Song: Red like Roses
Artist: Jeff Williams
From: RWBY ( Roosterteeth )
Tuning: Standard

INTRO:

|-------------------14-12---------|
|-15-14-15-14-15-14-------15-14---|
|---------------------------------|
|---------------------------------|
|---------------------------------|
|---------------------------------|

|-------------------14-12---------|
|-15-14-15-14-15-14-------15-14---|
|---------------------------------|
|---------------------------------|
|---------------------------------|
|---------------------------------|

|-------------------14-12---------|
|-15-14-15-14-15-14-------15-14---|
|---------------------------------|
|---------------------------------|
|---------------------------------|
|---------------------------------|

|-15-14---------------------------|
|-------16-14-16-14---------------|
|---------------------------------|
|---------------------------------|
|---------------------------------|
|---------------------------------|

|-------------------14-12---------|
|-15-14-15-14-15-14-------15-14---|
|---------------------------------|
|---------------------------------|
|---------------------------------|
|---------------------------------|

|-------------------------------14--------------|
|-15-14-15-14-15-14----14-15-17----15-14-15-----|
|-------------------16----------------------16--|
|-----------------------------------------------|
|-----------------------------------------------|
|-----------------------------------------------|

|-------------14--------------|
|----14-15-17----15-14-15-----|
|-16----------------------14--|
|-----------------------------|
|-----------------------------|
|-----------------------------|
Tap to rate this tab
 
# A B C D E F G H I J K L M N O P Q R S T U V W X Y Z