Guitaretab - guitar tabs
Song name
# A B C D E F G H I J K L M N O P Q R S T U V W X Y Z

Jeremiah Freed - Again tab

Song: Again
Artist: Jeremiah Freed
Tabber: Rob Marston (rob@leftatom.com)
Tuning: Standard (EGBDAE)
Notes: All the other tabs sounded like poo poo. Here's my version (the correct version) Oh yeah and incase 
were wondering I like putting "s" instead of "/" for my slides, that should help you out. Jeremiah Freed 
to be FAMEOUS! They deserve it. Have fun playing, more to come.


Intro/Verse:
[ Tab from: http://www.guitaretab.com/j/jeremiah-freed/120886.html ]
e-|-------------------------------------------------|
b-|--------4----------------------------------------|
g-|----------5---s5-4---4--------3---s8-8----13s0---| X2
d-|------5-------s5-4-5-4------3-----s8-8----13s0---|
a-|---s3--------------5-----s6------------10--------|
e-|-------------------------------------------------|

e-|-------------------|
b-|-------------------|
g-|---5-------8-------| Use these chords through out the song, listen to song for
d-|---5---6---8---8---| rhythm and muting. It'll take a little while. Theres a few
a-|---3---6---6---8---| other licks added in to jazz things up. You can try 'em if
e-|-------4-------6---| you want, but there's no need for it.

As for the solo and all the rest of it, I'm too lazy. You gotta REALLY love a song
in order to sit down and get the solo just right. The intro was good enough for me.
Related for Again tab
Again chords by Jeremiah Freed