Song name
# A B C D E F G H I J K L M N O P Q R S T U V W X Y Z

Jeremiah Freed - Rain tab

-------------------------------------------------------------------------------
			     Stranded - Jeremiah Freed
-------------------------------------------------------------------------------
Tabbed by: bribri543 (Brian Deerwester)

Tuning: Standard(EADGBe)...although they play in Eb

=======================
Intro/Verse
Bridge
Chorus
Verse
Bridge
Chorus
Solo 1
Solo 2 (Bridge Chords)
Chorus
Chorus
Intro/Verse
End
=======================


Intro / Verse


  Eb	                     Bb			     C#               B        4x
e|-------6-----6---6h7p6---|------6----6h7-777p6---|------4--4--4---|-2-2---2/4-|
B|----7----7-------------7-|-5/7--7----7---777--7--|----6--6-----6--|-4-4---4/6-|
G|-6/8-8-----8---8---------|-4/6--6--6-6---666---6-|-4/6-6--6--6--6-|-4---4-4/6-|
D|-------------------------|-----------------------|----------------|-----------|
A|-------------------------|-----------------------|----------------|-----------|
E|-------------------------|-----------------------|----------------|-----------|

Bridge

   Ebm      Bb    C
e|--6----|--6--|--7--|
B|--7(p6)|--6--|--7--|
G|--8----|--7--|--8--|
D|--8----|--8--|--9--|
A|--6----|--8--|--9--|
E|-------|--6--|--7--|

Chorus

    F#    C#    B     F#  C#   2x
e|--2--|-----|-----|--2-------|
B|--2--|--6--|--4--|--2----6--|
G|--3--|--6--|--4--|--3----6--|
D|--4--|--6--|--4--|--4----6--|
A|--4--|--4--|--2--|--4----4--|
E|--2--|-----|-----|--2-------|


Solo (Still working on it...sorry)


   Bb   C#   Ab   F#
e|---------------------------------------------------------------------------|
B|---------------------------------------------------------------------------|
G|---------------------------------------------------------------------------|
D|---------------------------------------------------------------------------|
A|---------------------------------------------------------------------------|
E|---------------------------------------------------------------------------|

| /  slide up
| \  slide down
| h  hammer-on
| p  pull-off
| ~  vibrato
| +  harmonic
| x  Mute note
===============================================================================
Tap to rate this tab
# A B C D E F G H I J K L M N O P Q R S T U V W X Y Z