Song name
# A B C D E F G H I J K L M N O P Q R S T U V W X Y Z

Jesse Barrera - Sweet Time tab

-------------------------------------------------------------------------------
			     Sweet Time- Jesse Barrera
 -------------------------------------------------------------------------------
Tabbed by: Michael Timog
Email: Ilikecheeserolls@aim.com

Tuning: Standard

Here's how I play it, and you can see it here :

http://www.youtube.com/watch?v=6G4BmKiR1KM

Just listen for the timing, it might feel awkward at first

Intro/Verse
e|---------------------------------------------------------------------------------------|
B|---------------------------------------7--6--------------------------------------------|
G|---6------9----11---7--99--99--77--77--7--7--------------------------------------------|
D|---6------9----11---7--77--77--55--55--7--7--------------------------------------------|
A|-----------------------99--99--77--77--5--5--------------------------------------------|
E|5--5---9--9----10---7------------------------------------------------------------------|

Chorus

The chords I play on the video are Bm, E, A, Fm,

      BM     E      A   FM
e|----------------------------------------------------------------------------------|
B|-----3------------2---------------------------------------------------------------|
G|-----4-----1------2---2-----------------------------------------------------------|
D|-----4-----2------2---2-----------------------------------------------------------|
A|--2--2-----2----0-0---------------------------------------------------------------|
E|---------0-0----------2-----------------------------------------------------------|


Final part of chorus

 (For taking up all of your sweet time...)
      B    Bm
e|--------------------------------------------------------------------------------|
B|-----4---3----------------------------------------------------------------------|
G|-----4---4----------------------------------------------------------------------|
D|-----4---4----------------------------------------------------------------------|
A|--2--2---2----------------------------------------------------------------------|
E|--------------------------------------------------------------------------------|

There's different ways to play this chorus and that's how I play it. Have fun with it, 
message me if you want more help, any feedback, requests, or whatever. Thanks!


===============================================================================
Tap to rate this tab
# A B C D E F G H I J K L M N O P Q R S T U V W X Y Z