Song name
# A B C D E F G H I J K L M N O P Q R S T U V W X Y Z

Jet - Seventeen tab

Okay so this is how to play Seventeen by Jet.

Pre-Chorus Guitar Line:
e|--15-14-12-10-9-10-9----------------|
b|--------------------10~-10-10-10b---|
G|------------------------------------|
D|------------------------------------|
A|------------------------------------|
E|------------------------------------|

Chorus:
   
e|-----------------------------------------|
b|-----------------------------------------|
G|--66----22--22-2-2----66-99-22--22-2-2---|
D|--66-22-22--22-2-2----66-99-22--22-2-2---|
A|--44-22-00--00-0-0----44-77-00--00-0-0---|
E|-----00----------------------------------|
Tap to rate this tab
 
# A B C D E F G H I J K L M N O P Q R S T U V W X Y Z