Song name
# A B C D E F G H I J K L M N O P Q R S T U V W X Y Z

Jet - Seventeen tab

Seventeen from Shaka Rock
By Anthony Stone

Piano Part:
e|-----------------------------------|
b|-----------------------------------|
G|------13-13-13-14-14-14-14-14------|
D|------11-11-11-11-11-11-11-11------|
A|-----------------------------------|
E|-----------------------------------|

Pre-Chorus Guitar Line:
e|--15-14-12-10-9-10-9----------------|
b|--------------------10~-10-10-10b---|
G|------------------------------------|
D|------------------------------------|
A|------------------------------------|
E|------------------------------------|

Chorus:
     C# Em  A      A
e|-----------------------------------|
b|-----------------------------------|
G|--6-6-----2-2--2-2-2---------------|
D|--6-6-2-2-2-2--2-2-2---------------|
A|--4-4-2-2-0-0--0-0-0---------------|
E|------0-0--------------------------|
Tap to rate this tab
# A B C D E F G H I J K L M N O P Q R S T U V W X Y Z