Guitaretab - guitar tabs
Song name
# A B C D E F G H I J K L M N O P Q R S T U V W X Y Z

Joan Jett - Hit Me With Your Best Shot tab

-------------------------------------------------------------------------------
		hit me with your best shot - joan jett
-------------------------------------------------------------------------------
Tabbed by:dann-gonzalez
Email:dann-gonzalez@hotmail.com

Tuning:standard

e|-------------------------------------------------------------------------|
B|-------------------------------------------------------------------------|
G|--9--2--2--6--6--4--4----------9--2--2--6--6--4--4--2--2--4--4-----------|
D|--9--2--2--6--6--4--4----------9--2--2--6--6--4--4--2--2--4--4-----------|
A|--7--0--0--4--4--2--2----------7--0--0--4--4--2--2--0--0--2--2-----------|
E|-------------------------------------------------------------------------|
[ Tab from: http://www.guitaretab.com/j/joan-jett/162754.html ]
e|-------------------------------------------------------------------------|
B|-------------------------------------------------------------------------|
G|--9--2--2--6--6--4--4----4-----9--2--2--6--6--4--4--2--2--4--4-----------|
D|--9--2--2--6--6--4--4----4-----9--2--2--6--6--4--4--2--2--4--4-----------|
A|--7--0--0--4--4--2--2----2-----7--0--0--4--4--2--2--0--0--2--2-----------|
E|-------------------------------------------------------------------------|

e|-------------------------------------------------------------------------|
B|-------------------------------------------------------------------------|
G|--9-----(9)-----6-----(6)-----4----------------------------4-------------|
D|--9-----(9)-----6-----(6)-----4----------------------------4-------------|
A|--7-----(7)-----4-----(4)-----2------palm mute repeatedly--2-------------|
E|-------------------------------------------------------------------------|

e|-------------------------------------------------------------------------|
B|-------------------------------------------------------------------------|
G|--9-----(9)-----6-----(6)-----4----------------------------4-------------|
D|--9-----(9)-----6-----(6)-----4----------------------------4-------------|
A|--7-----(7)-----4-----(4)-----2------palm mute repeatedly--2-------------|
E|-------------------------------------------------------------------------|

sorry i can't figure out the solo and kepp playing the same progression  throughout the 
please rate and comment
Related for Hit Me With Your Best Shot tab