Song name
# A B C D E F G H I J K L M N O P Q R S T U V W X Y Z

Joe Bonamassa - Spanish Boots tab

-----------------------------------------------------------------------------
                             SPANISH BOOTS - Joe Bonamassa
-----------------------------------------------------------------------------
Tabbed by: Sean Moynihan
Email: zmoynihans@hotmail.com

Tuning: Standard

e|-----------------------------------7b------7\\\\--------|
B|-----------------------------------7b------7\\\\--------|
G|--------------------------------------------------------|
D|--------------------------------------------------------|
A|------------4--4--5--5h6--------------------------------|
E|-4--4--47--7--------------4--4--x-----------------------|

Repeat 4 Times
(last time, don't slide down from 7th fret)

************************************

| /   slide up
| \   slide down
| h   hammer-on
| p   pull-off
| ~   vibrato
| x   Mute note
| b   Bend

************************************
Tap to rate this tab
 
# A B C D E F G H I J K L M N O P Q R S T U V W X Y Z