Song name
# A B C D E F G H I J K L M N O P Q R S T U V W X Y Z

John 5 - Damaged tab

Help us improve GuitareTab! Take a short survey!
----------------------------------------------------------------------------
			     Damaged - Danity Kane
----------------------------------------------------------------------------
www.danitykane.com

Tabbed by: Anonymous
Email: ptownkid650@gmail.com

Tuning: standard


this is my 1st tab, so sorry for the REALLY bad inaccuracy...i mean c'mon, only 13 here. 
and sorry, i havent figured out the chorus yet. if you figure it out, can you email it 
me? thanks

e|--------4----4----6----6----4----6----6----6----2-------------------|
B|-----------------------------------------------------4--------------|
G|--------------------------------------------------------------------|
D|--------------------------------------------------------------------|
A|--------------------------------------------------------------------|
E|--------------------------------------------------------------------|

e|--------4----4----6----4----6---6---6----4---4---9----7----7--------|
B|--------------------------------------------------------------------|
G|--------------------------------------------------------------------|
D|--------------------------------------------------------------------|
A|--------------------------------------------------------------------|
E|--------------------------------------------------------------------|

e|--------6----6----6----6----7--------------4----6--------------6----|
B|---------------------------------4----4--------------4----4---------|
G|--------------------------------------------------------------------|
D|--------------------------------------------------------------------|
A|--------------------------------------------------------------------|
E|--------------------------------------------------------------------|

e|-----------------4----6--------------6--------------4----6-----------|
B|--------4---4--------------4----4---------4----4--------------4----4-|
G|---------------------------------------------------------------------|
D|---------------------------------------------------------------------|
A|---------------------------------------------------------------------|
E|---------------------------------------------------------------------|

e|--------6---------4----6--------------9----7----6-------------------|
B|-------------4--------------4--4--4---------------------------------|
G|--------------------------------------------------------------------|
D|--------------------------------------------------------------------|
A|--------------------------------------------------------------------|
E|--------------------------------------------------------------------|

e|--------6----6----4----4----2----2----------------------------------|
B|--------------------------------------6----4----4----2----2---------|
G|---------------------------------------------------------------4----|
D|--------------------------------------------------------------------|
A|--------------------------------------------------------------------|
E|--------------------------------------------------------------------|

e|-------------------6----6----6----6----4----6----4----6----4----6----|
B|---------------------------------------------------------------------|
G|---------4----3------------------------------------------------------|
D|---------------------------------------------------------------------|
A|---------------------------------------------------------------------|
E|---------------------------------------------------------------------|

e|---------7----7----7----7----7----7----9----7----6----6----6----6---6-|
B|----------------------------------------------------------------------|
G|----------------------------------------------------------------------|
D|----------------------------------------------------------------------|
A|----------------------------------------------------------------------|
E|----------------------------------------------------------------------|

e|---------4----2-----------------------------------------------------|
B|-------------------6----4-------------------------------------------|
G|--------------------------------------------------------------------|
D|--------------------------------------------------------------------|
A|--------------------------------------------------------------------|
E|--------------------------------------------------------------------|
Related for Damaged tab