John Frusciante - Instrumental tab

John Frusciante & Josh Klinghoffer - Instrumental

http://www.youtube.com/watch?v=yeOhHdaX-u4


--------------------------------------------------------------------------------------------|
------------------------------------10----9---9h12-14-/12---12--12--12--12--9----9/12-12/14-|
----------------7----7/10-10-----10---------------------------------------------------------|
------------------------------12------------------------------------------------------------|
--------------------------------------------------------------------------------------------|
--------------------------------------------------------------------------------------------|


-------------------16--14--12---------------------------------------------------------------|
14-17-16-14---------------------14--/12-12---12/14-12h14-12h14-12---14b16b14--14--/12-12----|
------------16-13------------------------------------------------------------------------13-|
--------------------------------------------------------------------------------------------|
--------------------------------------------------------------------------------------------|
--------------------------------------------------------------------------------------------|


----------------------------------------------------------------------17------|
---------------------------------------------------------17----17----- --17---|
11h13-13-/16--9--9h11-/14--9---9h11-/14-13---13b14----14----14----14----------|
------------------------------------------------------------------------------|
------------------------------------------------------------------------------|
------------------------------------------------------------------------------|


16--14-------------------------------------14-16-14-13-14-13------------------------20-20------|
--------17--17-b19-b17--14--14-17----14-17-------------------16-14-16b18b16-16---16-------16---|
-----------------------------------------------------------------------------------------------|
-----------------------------------------------------------------------------------------------|
-----------------------------------------------------------------------------------------------|
-----------------------------------------------------------------------------------------------|


---22--22--22\20-20--20\18-18--18p17-17--17-------------------~~|
17--------------------------------------------16/14/12--12~---~~|
--------------------------------------------------------------~~|
--------------------------------------------------------------~~|
--------------------------------------------------------------~~|
--------------------------------------------------------------~~|

The beatiful song of john and josh, continue for me, i given best of me, please to 
that tab
Tap to rate this tab
 
# A B C D E F G H I J K L M N O P Q R S T U V W X Y Z