Song name
# A B C D E F G H I J K L M N O P Q R S T U V W X Y Z

John Mayer - Wildfire tab

-------------------------------------------------------------------------------
                             WILDFIRE - John Mayer
-------------------------------------------------------------------------------
Tabbed by: Nicholas Moniz


Tuning: Standard EADGBe      h=hammer on / p=pull off

Once you get the speed down it sounds right

e|---11--11--------------------------------------------------------------------|
B|-----------11h13p11------11h13p11--------------------------------------------|
G|--------------------12-------------------------------------------------------|
D|------------------------------------13---------------------------------------|
A|-----------------------------------------------------------------------------|
E|-----------------------------------------------------------------------------|

Riff played over the above intro

e|-----------------------------------------------------------------------------|
B|-------11-13-----------11-13-------------------------------------------------|
G|------------12--------------12-12--------------------------------------------|
D|---------------13-----------------13-----------------------------------------|
A|-----------------------------------------------------------------------------|
E|-----------------------------------------------------------------------------|
Tap to rate this tab
# A B C D E F G H I J K L M N O P Q R S T U V W X Y Z