Song name
# A B C D E F G H I J K L M N O P Q R S T U V W X Y Z

John Murphy - The Surface Of The Sun tab

tabbed by me, from this youtube video
http://www.youtube.com/watch?v=Da6IgOOwB0Y
pretty sure its 100% right


e-------------------------------------------------------------------|
B-------------------------------------------------------------------|
G--4---4---4---4---4---4---4---4---5---5---5---5---5---5---5---5----|
D----5---5---5---5---5---5---5---5---5---5---5---5---5---5---5---5--|
A----------------------------------3--------------------------------|
E-------------------------------------------------------------------|


e-------------------------------------------------------------------|
B-------------------------------------------------------------------|
G--4---4---4---4---4---4---4---4---4---4---4---4---2---2---2---2----|
D----5---5---5---5---5---5---5---5---4---4---4---4---0---0---0---0--|
A-------------------------------------------------------------------|
E--3-------------------------------2--------------------------------|


e-------------------------------------------------------------------|
B-------------------------------------------------------------------|
G--4---4---4---4---4---4---4---4---5---5---5---5---5---5---5---5----|
D----5---5---5---5---5---5---5---5---5---5---5---5---5---5---5---5--|
A----------------------------------3--------------------------------|
E--0----------------------------------------------------------------|


e-------------------------------------------------------------------|
B----------------------------------7---7---7---7---7---7---7---7----|
G--7---7---7---7---7---7---7---7-----7---7---7---7---7---7---7---7--|
D----5---5---5---5---5---5---5---5-0--------------------------------|
A-------------------------------------------------------------------|
E--3----------------------------------------------------------------|


e-------------------------------------------------------------------|
B--8---8---8---8---8---8---8---8---8---8---8---8---10--10--10--10---|
G----9---9---9---9---9---9---9---9---9---9---9---9---9---9---9---9--|
D-------------------------------------------------------------------|
A-------------------------------------------------------------------|
E--0-------------------------------8--------------------------------|

   G
e--3----------------------------------------------------------------|
B--3----------------------------------------------------------------|
G--4----------------------------------------------------------------|
D--5----------------------------------------------------------------|
A--5----------------------------------------------------------------|
E--3----------------------------------------------------------------|
Tap to rate this tab
 
# A B C D E F G H I J K L M N O P Q R S T U V W X Y Z