Guitaretab - guitar tabs
Song name
# A B C D E F G H I J K L M N O P Q R S T U V W X Y Z

John Murphy - In The House In A Heartbeat tab

In The House-In A Heartbeat
John Murphy
28 Days Later
Standard EADGBe Tuning
Gtr 1- Rhythm
Gtr 2- Lead
Gtr 3- Alternate

UPDATE*- Jan. 15th, 2008
Adding Gtr 4- Bass
And fixing the rhythym strums.


Intro
Gtr 3 (play throughout whole song)                                      
||----17----17----17----17----17-----17-||
||-15----15----15----15----15----15-----||
||--------------------------------------||
||--------------------------------------||
||--------------------------------------||
||--------------------------------------||
(Bass comes in after the first time)
(All guitars come in after 3 times)

Gtr 4
|-----------|-----------------------------------|
|-----------|-----------------------------------|
|-----------|-----------------------------------|
|-8~~~/0\10-|-10----10----10-10--10----10----10-|

|----------------------------|
|----------------------------|
|----------------------------|
|-6----6----6-6--6----6----6-|


-All Guitars-


Gtr 1,2 (clean)
  F                    E
|------------------------------------------|
|------------------------------------------|
|-2---2--2-2-2--2-2-2--1---1--1--1-1-1-1-1-|
|-3---3--3-3-3--3-3-3--2---2--2--2-2-2-2-2-|
|-3---3--3-3-3--3-3-3--2---2--2--2-2-2-2-2-|
|-1---1--1-1-1--1-1-1--0---0--0--0-0-0-0-0-|
Gtr 4 (clean)
|------------------------------------------|
|------------------------------------------|
|------------------------------------------|
|-1---1--1-1-1--1-1-1--0---0--0--0-0-0-0-0-|

---------------------------------------\
---------------------------------------||
-*this is what I like to do!*-         ||
Gtr 2 (clean)                          ||
||----------------------------------||-||
||----------------------------------||-||
||-6---6---7---7---9---9---10---10--||-||
||---0---0---0---0---0---0----0-----||-||
||----------------------------------||-||
||----------------------------------||-||
-*this is what I like to do!*-         ||
---------------------------------------||
--------------------------------------|/


Gtr 2 (clean)                     x18
||---------------------------------||
||-----------------------------=---||
||-6---6---7---7---9---9---10---10-||
||---------------------------------||
||---------------------------------||
||---------------------------------||
Gtr 4
|---------------------------|
|---------------------------|
|---------------------------|
|-0~----(0)~----(0)~----(0)-|

Gtr 1 (clean)
   D     Bb    E     F
|-----|-----|-----|-----|
|-----|-----|-----|-----|
|--7--|--3--|-----|-----|
|--7--|--3--|--2--|--3--|
|--5--|--1--|--2--|--3--|
|-----|-----|--0--|--1--|
strum these chords once the first 4times
then strum them throughout the lead part


Gtr 4 (bass will play when Gtr 2 starts)
|-------------------------------------------|
|-------------------------------------------|
|-12-12-12-12-12-13-13-13-13-13-15-15-15-15-|
|-------------------------------------------|
(cont.)
|-----|-----|-----|-----|
|-----|-----|-----|-----|
|-----|-----|-----|-----|
|-10--|--6--|--0--|--1--|
(basically follow Gtr 1's strum)

|-------------------------------------------|
|-------------------------------------------|
|-12-12-12-12-12-13-13-13-13-13-12-12-12-12-|
|-------------------------------------------|

|-----|-----|-----|-----|
|-----|-----|-----|-----|
|-----|-----|-----|-----|
|-10--|--6--|--0--|--1--|
(follow the Gtr 1 strummimg again)

|-------------------------------------------|
|-------------------------------------------|
|-12-12-12-12-12-13-13-13-13-13-15-15-15-15-|
|-------------------------------------------|

[ Tab from: http://www.guitaretab.com/j/john-murphy/91040.html ]
Gtr 2 (distortion)                                                   x4
||-9-9-9-9-9-9-10-10-10-10-10-10-12-12-12-12-12-12-13-13-13-13-13-13-||
||-------------------------------------------------------------------||
||-6-6-6-6-6-6-7--7--7--7--7--7--9--9--9--9--9--9--10-10-10-10-10-10-||
||-------------------------------------------------------------------||
||-------------------------------------------------------------------||
||-------------------------------------------------------------------||
Gtr 1 (distortion)                                                   ||
||-------------------------------------------------------------------||
||-------------------------------------------------------------------||
||-------------------------------------------------------------------||
||-7----(7)----7----(7)----7----(7)----7----(7)----7---(7)----7--(7)-||
||-5----(5)----5----(5)----5----(5)----5----(5)----5---(5)----5--(5)-||
||-------------------------------------------------------------------||
Gtr 1 (cont.)                                                        ||
||-------------------------------------------------------------------||
||-------------------------------------------------------------------||
||-------------------------------------------------------------------||
||-3----(3)----3----(3)----3----(3)----3----(3)----3---(3)----3--(3)-||
||-1----(1)----1----(1)----1----(1)----1----(1)----1---(1)----1--(1)-||
||-------------------------------------------------------------------||
Gtr 1 (cont.)                                                        ||
||-------------------------------------------------------------------||
||-------------------------------------------------------------------||
||-------------------------------------------------------------------||
||-------------------------------------------------------------------||
||-2----(2)----2----(2)----2----(2)----2----(2)----2---(2)----2--(2)-||
||-0----(0)----0----(0)----0----(0)----0----(0)----0----0)----0--(0)-||
Gtr 1 (cont.)                                                        ||
||-------------------------------------------------------------------||
||-------------------------------------------------------------------||
||-------------------------------------------------------------------||
||-------------------------------------------------------------------||
||-3----(3)----3----(3)----3----(3)----3----(3)--3-3-3-3-3-3-3-3-3-3-||
||-1----(1)----1----(1)----1----(1)----1----(1)--1-1-1-1-1-1-1-1-1-1-||
                                               PM- - - - - - - - - -

Gtr 4 (distortion)
|-----|-----|-----|-----|
|-----|-----|-----|-----|
|-----|-----|-----|-----|
|-10--|--6--|--0--|--1--|
(basically follow Gtr 1's strum)


Gtr 2 (distortion)                    x10
||-9---9---10---10---12---12---13---13-||
||-------------------------------------||
||-6---6---7----7----9----9----10---10-||
||-------------------------------------||
||-------------------------------------||
||-------------------------------------||
Gtr 1 (distortion)
   D     Bb    E     F
|-----|-----|-----|-----|
|-----|-----|-----|-----|
|--7--|--3--|-----|-----|
|--7--|--3--|--2--|--3--|
|--5--|--1--|--2--|--3--|
|-----|-----|--0--|--1--|
play each chord throughout Gtr 2s riff
*last time around, do some heavy palm-muting on the F powerchord

Gtr 4 (distortion)
|-----|-----|-----|-----|
|-----|-----|-----|-----|
|-----|-----|-----|-----|
|-10--|--6--|--0--|--1--|
(basically follow Gtr 1's strum)


Outro									           x2
||-9----9----11----11----9----9----11----11----7---7---7---7---9---9---8---8-||
||---10---10----10----10---10---10----10----10---9---9---9---9---9---9---9---||
||---------------------------------------------------------------------------||
||---------------------------------------------------------------------------||
||---------------------------------------------------------------------------||
||---------------------------------------------------------------------------||


*somethings I play for fun...
Chord Variations for Gtr 3
|-----------------------------------------|
|-----------------------------------------|
|---6----6----7----7----9----9----10---10-|
|-----------------------------------------|
|-4----4----5----5----7----7----8----8----|
|-----------------------------------------|

|-------------------------------|
|-------------------------------|
|-6---6---7---7---9---9---1010-|
|-------------------------------|
|-4---4---5---5---7---7---8---8-|
|-------------------------------|
Related for In The House In A Heartbeat tab