John Murphy - The Corridor tab

The Corridor, Kick ass Score - John Murphy.

Tabbed by SeawolfRN:
Email: psyco_raptor@dsl.pipex.com

It's played when Hit Girl is hiding behind the podium, just before 'Bad Reputation' 
on.
It's a piece made specifically for the film. IMHO, it should have been extended for the 
scene, as Bad reputation somewhat jars... But anyway.

This is the Second version - Featuring as it does slight amendments and more stuff...

Intro:

e|-----------------|------------------|
B|---------3-------|------------------|
G|-----4-----4-----|-----4--------4---|
D|---4---4-----4---|---4---4----4---4-|
A|-2-------------2-|------------------|
E|-----------------|-3--------0-------|

Repeat 4 Times,

Then; - (Preferably with a 2nd Guitar)
e|-----------------|---------------|
B|---------3-------|-----3---3-2---|
G|-----4-----4-----|---------------|
D|---4---4-----4---|---4-----------|
A|-2-------------2-|-2-------------|
E|-----------------|---------------|

As far as the Chords go, It is essentially the same chord in different strumming 
(which are difficult to record in Tab)

e|-----|----------------------------------------------------------|
B|-----|----------------------------------------------------------|
G|-----|----------------------------------------------------------|
D|-4---|----------------------------------------------------------|
A|-2---|----------------------------------------------------------|
E|-0---|----------------------------------------------------------|


Tremelo towards the end:

e|-------------------------------------------------------------------------|
B|-12-12-12-12-12-12-12-12-12-12-12-12-12-12-12-12-12-14-14-14-14-14-14-14-|
G|-------------------------------------------------------------------------|
D|-------------------------------------------------------------------------|
A|-------------------------------------------------------------------------|
E|-------------------------------------------------------------------------|

e|-------------------------------------------------------------------------|
B|-14-14-14-14-14-14-14-14-14-15-15-15-15-15-15-15-15-15-15-15-15-15-15-15-|
G|-------------------------------------------------------------------------|
D|-------------------------------------------------------------------------|
A|-------------------------------------------------------------------------|
E|-------------------------------------------------------------------------|

e|----------------------------------------------------14-14-14-14-14-14-14-|
B|-15-17-17-17-17-17-17-17-17-17-17-17-17-17-17-17-17----------------------|
G|-------------------------------------------------------------------------|
D|-------------------------------------------------------------------------|
A|-------------------------------------------------------------------------|
E|-------------------------------------------------------------------------|

e|-14-15-15-15-15-15-15-15-17-17-17-17-17-17-17-17-19-19-19-19-19-19-19-19-|
B|-------------------------------------------------------------------------|
G|-------------------------------------------------------------------------|
D|-------------------------------------------------------------------------|
A|-------------------------------------------------------------------------|
E|-------------------------------------------------------------------------|

e|-|19~----|
B|-|-------|
G|-|-------|
D|-|-------|
A|-|-------|
E|-|-------|

Play to taste, essentially...

It's not much, but it's something (And it's heartwarming to see my earlier version 
around T'internets XD )

Ta.

SeawolfRN.
Tap to rate this tab
 
# A B C D E F G H I J K L M N O P Q R S T U V W X Y Z