Guitaretab - guitar tabs
Song name
# A B C D E F G H I J K L M N O P Q R S T U V W X Y Z

John Petrucci - Wishful Thinking tab

I've tabbet the demonstration of this song on YouTube.
I cant garantee its 100% but 99.9 ;)
I've tabbet to 1.17 min but it's a start.
I will tab the rest when i have time

YouTube link: http://www.youtube.com/watch?v=c0WKeCGD4h0


John Petrucci - Wishful Thinking
Standard tuning
/ : F.ex 2/4. take your finger from 2 to 4 at the same time.
^ : bend up
Just watch the film on Youtube and you will understand =)

Intro:
e---------------------------------------------------------------------------|
H---------------------------------------------------------------------------|
G---------------------------------------------------------------------------|
D------4-3-4------3----4-3-4-----4/6----------------------------------------|
A-------------4-------------------------------------------------------------|
E---------------------------------------------------------------------------|

e---------------------------------------------------------------------------|
H---------------------------------------------------------------------------|
G---------------------------------------------------------------------------|
D-------4-3-4---------------3-----------------------------------------------|
A--------------4-2-4--2/4---------------------------------------------------|
E---------------------------------------------------------------------------|

e---------------------------------------------------------------------------|
H---------------------------------------------------------------------------|
G---------------------------------------------------------------------------|
D-------4-3-4-----3---4-3-4-------------------------------------------------|
A--------------4------------------------------------------------------------|
E---------------------------------------------------------------------------|

e---------------------------------------------------------------------------|
H---------------------------------------------------------------------------|
G----------3-4--3^----------------------------------------------------------|
D------4-6------------6-6-4-3/4---------------------------------------------|
A---------------------------------------------------------------------------|
E---------------------------------------------------------------------------|

Verse 1:
e---------------------------------------------------------------------------|
H-----------------------5/7-------------------------------------------------|
G--------4/6----4-3-6-------------------------------------------------------|
D----------------------------6/8-6------------------------------------------|
A---------------------------------------------------------------------------|
E---------------------------------------------------------------------------|

e---------------------------------------------------------------------------|
H--------------------6/9----------------------------------------------------|
G----------3-4-6------------------------------------------------------------|
D------6------------------3-4-3---------------------------------------------|
A---------------------------------------------------------------------------|
E---------------------------------------------------------------------------|
[ Tab from: http://www.guitaretab.com/j/john-petrucci/143709.html ]
e---------------------------------------------------------------------------|
H---------------------------------------------------------------------------|
G--------8------10-10^--6-5-------------------------------------------------|
D------8--------------------------------------------------------------------|
A---------------------------------------------------------------------------|
E---------------------------------------------------------------------------|

e---------------------------------------------------------------------------|
H---------9--11-11^---------------------------------------------------------|
G-----5--------------11-10--------------------------------------------------|
D---------------------------------------------------------------------------|
A---------------------------------------------------------------------------|
E---------------------------------------------------------------------------|

Verse 2:
e---------------------------------------------------------------------------|
H-----------------7/9-7-----------------------------------------------------|
G------6-4-3-6--------------------------------------------------------------|
D------------------------6--------------------------------------------------|
A---------------------------------------------------------------------------|
E---------------------------------------------------------------------------|

e---------------------------------------------------------------------------|
H--------------------11-9-11/12/11-9----------------------------------------|
G------------3-4-6----------------------------------------------------------|
D--------6------------------------------------------------------------------|
A---------------------------------------------------------------------------|
E---------------------------------------------------------------------------|

e---------------------------------------------------------------------------|
H-----7-9-11-9-7-9----------------------------------------------------------|
G---------------------------------------------------------------------------|
D---------------------------------------------------------------------------|
A---------------------------------------------------------------------------|
E---------------------------------------------------------------------------|

e---------------------------------------------------------------------------|
H-----9-11-12---------------------------------------------------------------|
G---------------------------------------------------------------------------|
D---------------------------------------------------------------------------|
A---------------------------------------------------------------------------|
E---------------------------------------------------------------------------|

e-------------------11------------------------------------------------------|
H----------11-12-14---14-12-11-12-------------------------------------------|
G----11-13------------------------13----------------------------------------|
D------------------------------------11-10-11-------------------------------|
A--------------------------------------------11-----------------------------|
E---------------------------------------------------------------------------|
Related for Wishful Thinking tab
Wishful Thinking chords by John Petrucci